Gary Jules - Mad World Chords & Tabs

 

Mad World Chords & Tabs

Gary Jules Chords & Tabs

Version: 5 Type: Tab 0 ratings
1 star 2 stars 3 stars 4 stars 5 stars
comments

Mad World Tab

   
                                    MAD WORLD
                 As recorded by Michael Andrews feat. Gary Jules
                  (From the 2002 Album DONNIE DARKO SOUNDTRACK)

Arranged by Michael Andrews
Transcribed by Matt Notley


Gtr I (E A D G B E) - 'Acoustic Guitar'
Gtr II (E A D G B E) - 'Acoustic Guitar'

CAPO ON 1ST FRET

 Intro
  Q=95
  Em                A              Em                  A
 4/4
  Gtr I
|-----------------|--------------|-------------------|---------------||
|---0-------------|----2---------|-----0-------------|------2--------||
|-0-----0---------|----2-----2-0-|-(0)-----0-----0-2-|-(2)--2-----2--||
|-----4---2h4-0---|----2-----2---|-------4---2h4-----|------2-----2--||
|---------------4-|-0-----0------|-------------------|--0------0-----||
|-----------------|--------------|-------------------|---------------||


   Verse
    Em                G
    Gtr II
    |   |   |   |     |   |   |   |
    /   /   /   /     /   /   /   /

    Gtr I
||--------------0---|-------------3---|
||o-----0-----------|-----3-----------|
||------------------|-----------------|
||--------2-------2-|-------0-------0-|
||o---2-------2-----|---2-------2-----|
||--0-------0-------|-3-------3-------|


                   1.,2.,3.             4.
  D                 A                   A
  |   |   |   |     |   |   |   |       |
  /   /   /   /     /   /   /   /       /

                                     4x
|-------------2---|-------------0----||------||
|-----3-----------|-----2-----------o||------||
|---2---2---2---2-|------------------||------||
|-0-------0-------|---2---2---2---2--||------||
|-----------------|-0-------0-------o||-0----||
|-----------------|------------------||------||


   Pre-Chorus
    Em                A
    |   |   |   |     |   |   |   |
    /   /   /   /     /   /   /   /

||------0-------0---|-----0-------0---|
||o-----0-------0---|-----2-------2---|
||------0-------0---|-----2-------2---|
||--------2-------2-|---2---2---2---2-|
||o---2-------2-----|-0-------0-------|
||--0-------0-------|-----------------|


                   1.                   2.
  Em                A                   A
  |   |   |   |     |   |   |   |       |
  /   /   /   /     /   /   /   /       /

|-----0-------0---|-----0-------0----||------||
|-----0-------0---|-----2-------2---o||------||
|-----0-------0---|-----2-------2----||------||
|-------2-------2-|---2---2---2---2--||------||
|---2-------2-----|-0-------0-------o||-0----||
|-0-------0-------|------------------||------||


 Chorus
  Em                A              Em                  A
  |   |   |   |     |  |  |  |      |    |   |   |      |   |  |  |
  /   /   /   /     /  /  /  /      /    /   /   /      /   /  /  /
[ Tab from: http://www.guitartabs.cc/tabs/g/gary_jules/mad_world_tab_ver_5.html ]
|-----------------|--------------|-------------------|----------------||
|-0-0-------------|----2---------|-----0-------------|------2---------||
|-0-----0---------|----2-----2-0-|-(0)-----0-----0-2-|-(2)--2-----2---||
|-----4---2h4-0---|----2-----2---|-------4---2h4-----|------2-----2---||
|---------------4-|-0-----0------|-------------------|--0------0------||
|-----------------|--------------|-------------------|----------------||


   Verse
    Em                G
    |   | | |   | |   |   | | |   | |
    /   / / /   / /   /   / / /   / /

||------0-------0---|-----3-------3---|
||o-----0-------0---|-----3-------3---|
||------0-------0---|-----0-------0---|
||--------2-------2-|-------0-------0-|
||o---2-------2-----|---2-------2-----|
||--0-------0-------|-3-------3-------|


                   1.,2.,3.             4.
  D                 A                   A
  |   | | |   | |   |   | | |   | |     |
  /   / / /   / /   /   / / /   / /     /

                                     4x
|-----2-------2---|-----0-------0----||------||
|-----3-------3---|-----2-------2---o||------||
|---2---2---2---2-|-----2-------2----||------||
|-0-------0-------|---2---2---2---2--||------||
|-----------------|-0-------0-------o||-0----||
|-----------------|------------------||------||


   Pre-Chorus
    Em                A
    |   | | |   | |   |   | | |   | |
    /   / / /   / /   /   / / /   / /

||------0-------0---|-----0-------0---|
||o-----0-------0---|-----2-------2---|
||------0-------0---|-----2-------2---|
||--------2-------2-|---2---2---2---2-|
||o---2-------2-----|-0-------0-------|
||--0-------0-------|-----------------|


                   1.                   2.
  Em                A                   A
  |   | | |   | |   |   | | |   | |     |
  /   / / /   / /   /   / / /   / /     /

|-----0-------0---|-----0-------0----||------||
|-----0-------0---|-----2-------2---o||------||
|-----0-------0---|-----2-------2----||------||
|-------2-------2-|---2---2---2---2--||------||
|---2-------2-----|-0-------0-------o||-0----||
|-0-------0-------|------------------||------||


 Chorus
  Em                A              Em                  A
  |   | | |   | |   |  | ||  | |    |    | | |   | |    |   | ||  | |
  /   / / /   / /   /  / //  / /    /    / / /   / /    /   / //  / /

|-----------------|--------------|-------------------|----------------|
|-0-0-------------|----2---------|-----0-------------|------2---------|
|-0-----0---------|----2-----2-0-|-(0)-----0-----0-2-|-(2)--2-----2---|
|-----4---2h4-0---|----2-----2---|-------4---2h4-----|------2-----2---|
|---------------4-|-0-----0------|-------------------|--0------0------|
|-----------------|--------------|-------------------|----------------|


  Em                A              Em                  A
  |   | | |   | |   |  | ||  | |    |    | | |   | |    |           |
  /   / / /   / /   /  / //  / /    /    / / /   / /    /           /

|-----------------|--------------|-------------------|-----------|--------*|
|-0-0-------------|----2---------|-----0-------------|-----------|--------*|
|-0-----0---------|----2-----2-0-|-(0)-----0-----0-2-|-(2)-------|-(2)----*|
|-----4---2h4-0---|----2-----2---|-------4---2h4-----|-----------|--------*|
|---------------4-|-0-----0------|-------------------|--0--------|-(0)----*|
|-----------------|--------------|-------------------|-----------|--------*|

Props go out to Matt Notley
Comments