Gary Jules - Mad World Chords & Tabs

 

Mad World Chords & Tabs

Gary Jules Chords & Tabs

Version: 4 Type: Tab 0 ratings
1 star 2 stars 3 stars 4 stars 5 stars
comments

Mad World Tab

Gary Jules - Mad World
Album: Trading Snakeoil for Wolftickets

Tab by Tony K.


Standard Tuning

Main Riff

e|-----------------------------8---------------|
B|--9-11-8-9-6-8-------6---6-9---8-9-6-8-9-11--|
G|---------------8-7---7---7-7-----------------|
D|-------------------8---8---------------------|
A|---------------------------------------------|
E|---------------------------------------------|

Verse

e|---------------------------------------|
B|----1---1----4---4--------------6---6--|
G|----1---1----5---5----3---3-----7---7--|
D|--3---3----6---6------5---5---8---8----|
A|--------------------6---6--------------|
E|---------------------------------------|

Repeat 4x. Note fourth time ends differently...
[ Tab from: http://www.guitartabs.cc/tabs/g/gary_jules/mad_world_tab_ver_4.html ]
e|---------------------------------|
B|----1---1----4---4------------6--|
G|----1---1----5---5----3---3---7--|
D|--3---3----6---6------5---5---8--|
A|--------------------6---6--------|
E|---------------------------------|

Chorus

e|--------------------------------------------------------------|
B|----1---1---6---6---1---1---6---6---1---1---6---6---1---1--6--|
G|----1---1---7---7---1---1---7---7---1---1---7---7---1---1--7--|
D|--3---3---8---8---3---3---8---8---3---3---8---8---3---3----8--|
A|--------------------------------------------------------------|
E|--------------------------------------------------------------|

At the very end of the song...

e|----------------------|
B|--9-9-8-8-6-6---------|
G|---------------8-7----|
D|-------------------8--|
A|----------------------|
E|----------------------|
Comments