Gary Jules - Mad World Chords & Tabs

 

Mad World Chords & Tabs

Gary Jules Chords & Tabs

Version: 1 Type: Tab 0 ratings
1 star 2 stars 3 stars 4 stars 5 stars
comments

Mad World Tab

   
verse
E--------------------------------------------------------------
B--------0-----------0------------3------------3---------------
G-----0-----0-----0-----0------0-----0-----0------0------------ 
D--2-----------2------------0-----------0----------------------
A--------------------------------------------------------------
E--------------------------------------------------------------

E--------------------------------------------------------------
B--------3-----------3------------2--------------2-------------
G-----2-----2-----2-----2------2-----2--------2-----2---------- 
D--0-----------0------------2-----------2--2-------------------
A--------------------------------------------------------------
E--------------------------------------------------------------

chorus part 1
E--------------------------------------------------------------
B---------0-----------0-------------2----------2---------------
G------0-----0-----0-----0-------2-----2-----2-----2-----------
D---2-----------2-------------2-----------2--------------------
A--------------------------------------------------------------
E--------------------------------------------------------------
[ Tab from: http://www.guitartabs.cc/tabs/g/gary_jules/mad_world_tab.html ]
chorus part 2
  Em   G    A
E------3-----------
B------3----2------
G-----------2------   <--play these three chords after playing
D--2--------2------      the first part of the chorus
A--2---2-----------      (this is the bit where he sings "mad world")
E------3-----------

order:
      verse x 4
      chorus part 1 x 4
      chorus part 2 x 2
      verse x 4
      chorus part 1 x 4
      chorus part 2 x 2

Lyrics
                
All around me are familiar faces
Worn out places worn out faces 
Bright and early for their daily races 
Going nowhere going nowhere 
Their tears are filling up their glasses 
No expression no expression 
Hide my head I want to drown my sorrow 
No tomorrow no tomorrow 

And I find it kinda funny, I find it kinda sad 
The dreams in which I'm dying are the best Ive ever had 
I find it hard to tell you, I find it hard to take 
When people run in circles its a very very 
Mad world 
Mad world 

Children waiting for the day they feel good 
Happy birthday happy birthday 
Made to feel the way that every child should 
Sit and listen sit and listen 
Went to school and I was very nervous 
No one knew me no one knew me
Hello teacher tell me whats my lesson 
Look right through me look right through me 

And I find it kinda funny, I find it kinda sad 
The dreams in which Im dying are the best Ive ever had 
I find it hard to tell you, I find it hard to take 
When people run in circles its a very very 
Mad world 
Enlarge your world 
Mad world
Comments