Gary Hoey - Youre A Mean One Mr Grinch Chords & Tabs

 

Youre A Mean One Mr Grinch Chords & Tabs

Gary Hoey Chords & Tabs

Version: 2 Type: Tab 0 ratings
1 star 2 stars 3 stars 4 stars 5 stars
comments

Youre A Mean One Mr Grinch Tab

Tabbed by: my guitar teacher

Tuning: Standard
Album: The Best of Ho! Ho! Hoey!

 |1xonly|   Main Riff  x2    ending #1   #2    ending #3
e|----|--------------------|-----------|----|------------------------------|
B|----|--------------------|-----------|----|------------------------------|
G|----|--------------4-----|-----------|----|------------------------------|
D|----|--------------2-----|-----------|----|------------------------------|
A|--2-|:-2--5--4--2-----2-:|--2--3--2--|-2~-|--5--4--3--2------------------|
E|--0-|:-0--3--2--0-----0-:|--0--1--0--|-0~-|--3--2--1--0------------------|

play main riff only then straight to ending #4
   #4 " youre a mean one..."
e|-------------------|---------------|------------------|----------------|
B|-------------------|---------------|------------------|----------------|
G|-------------------|-------------8-|------------------|----------------|
D|-----7--9----7-9-7-|----7-9--11----|-------9-7--------|----------------|
A|-10-------7--------|-10------------|-9-9-9-----10-9-7-|--7--9----------|
E|-------------------|---------------|------------------|----------------|
[ Tab from: http://www.guitartabs.cc/tabs/g/gary_hoey/youre_a_mean_one_mr_grinch_tab_ver_2.html ]
  (listen to the 8h9 part for exactness)        
e|-------------------------|--------------------------------------------|
B|-------------------------|--------------------------------------------|
G|-----------8h98h98h98h9--|--8------8--9-------------------------------|
D|-------------------------|-----11-------------------------------------|
A|---10-9-7----------------|--------------------------------------------|
E|-------------------------|--------------------------------------------|

the whooville part
e|--7---9-|--7-------7-|------7---12-|--7--7----------------------------|
B|----9---|----10-7----|-10-9--------|-------10-9h10p9-7----------------|
G|--------|------------|-------------|----------------------------------|
D|--------|------------|-------------|----------------------------------|
A|--------|------------|-------------|----------------------------------|
E|--------|------------|-------------|----------------------------------|

e|--7---9-|-7------7--9-11-12-7-|-7-------------------------------------|
B|----9---|---10-7--------------|---10-9-10p9-7-5-----------------------|
G|--------|---------------------|---------------------------------------|
D|--------|---------------------|---------------------------------------|
A|--------|---------------------|---------------------------------------|
E|--------|---------------------|---------------------------------------|

it's not exact but you get the idea. have fun with it! pukesthedayawa@yahoo.com if need be
Comments