Gary Allan - Right Where I Need To Be Chords & Tabs

 

Right Where I Need To Be Chords & Tabs

Gary Allan Chords & Tabs

Version: 1 Type: Tab 0 ratings
1 star 2 stars 3 stars 4 stars 5 stars
comments

Right Where I Need To Be Tab

E--------9--9---------9--9----------9/11-----11----------|
B-6/7-7--------7/6-6--------6---7/6-7/9------------------|
G--------------------------------------------------------|
D--------------------------------------------------------|
A--------------------------------------------------------|
E--------------------------------------------------------|
[ Tab from: http://www.guitartabs.cc/tabs/g/gary_allan/right_where_i_need_to_be_tab.html ]
E--------9--9---------9--9-------------------------------|
B-6/7-7--------7/6-6--------6----------9-----------------|
G------------------------------8h9-8------1--------------|
D--------------------------------------------------------|
A--------------------------------------------------------|
E--------------------------------------------------------|


Thats how i play it and its simple!
..peace..trevor
Comments