Garth Brooks - That Summer Chords & Tabs

 

That Summer Chords & Tabs

Garth Brooks Chords & Tabs

Version: 1 Type: Tab 0 ratings
1 star 2 stars 3 stars 4 stars 5 stars
comments

That Summer Tab

   
Auther/Artist:Garth Brooks
Title:That Summer



Intro
 (Steel Guitar)       (Acoustic + Dist. Electric)
                        D          E          D    C#m    Bm
|-------9~---------|-------------|----------|------------------
|----10------10----|----7------7-|-9--------|-7-----5-----3----
|--9------------9--|----7------7-/-9--------|-7-----6-----4----
|------------------|----7------7-/-9--------|-7-----6-----4----
|------------------|----5------5-/-7--------|-5-----4-----2----
|------------------|-------------|----------|------------------

(N.C)                      A
I went to work for her that summer
                              F#m
A teenage kid so far from home
                        D
She was a lonely widowed woman
                           E     Esus
Hellbent to make it on her own
                              A        Asus
We were a thousand miles from nowhere
                               F#m
Wheat fields as far as I could see
                                D      Dsus
Both needin' somethin' from eachother
E                               A      Asus A
Not knowing yet what that might be

(Dist. Electric Guitar)
|----------------------------------
|----------------------------------
|--------------------2-------------
|--------------------2-------------
|--------------0--0--0-------------
|----------------------------------

verse II
                         A
'Till she came to me one evening
                        F#m
Hot cup of coffee and a smile
                      D
In a dress that I was certain
                           E
She hadn't worn in quite a while
                                 A
There was a difference in her laughter
                               F#m
There was a softness in her eyes
                          D
And on the air there was a hunger
E                     A
Even a boy could recognize

chorus
                           E      D
She had a need to feel the thunder
                                A
To chase the lightning from the skies
                             D
To watch a storm in all it's wonder
                     E
Ragin' in her lovers eyes
                            F#m     E   D
She had to ride the heat of passion
                     A
Like a comet burnin' bright
                            D
Rushing head-long in the wind
                           E
Out where only dreams have been
                           A      D    A
Burnin' both ends of the night


verse III

The summer wind was all around us
Nothin' between us but the night
And when I told her that I never
She softly whispered, "That's alright"
And then I watched her hands of leather

|-----------------------------------------------------------------
|------------------------------------------10-----12---12/14~~~---
|--------------------------------------7/9------------------------
|-----------------------------------------------------------------
|-----------------------------------------------------------------
|-----------------------------------------------------------------

Turn to velvet in a touch
[ Tab from: http://www.guitartabs.cc/tabs/g/garth_brooks/that_summer_tab.html ]
|------------------------12------------------------------------
|---------------------------(14)r12p10--12---------------------
|-------------------------------------------11~~~--------------
|--------------------------------------------------------------
|--------------------------------------------------------------
|--------------------------------------------------------------

There's never been another summer

|--------------------------------3p2-----------------------
|-------------------------------------3---3/5-----5~-------
|-----------------------------------------2/4-----4~-------
|----------------------------------------------------------
|----------------------------------------------------------
|----------------------------------------------------------

When I have ever learned so much
                                    1       1
|---------------------------------12^r(12)-----------------------------
|-----------------------------------------12^r(12)p10--12-------10~~~~-
|----------------------------------------------------------11----------
|----------------------------------------------------------------------
|----------------------------------------------------------------------
|----------------------------------------------------------------------

to chorus

Solo
*drop low "E" srting to "D" or play the () note an octave higher
 (this is the way I saw it played in Worchester)

                                     1                (dive w/ wham. bar)
|---------------|-----------|---------------|------0-----------------------
|---------------|-----------|---------------|------------------------------
|---------------|-----------|---------------|---2--------------------------
|-----------(0)-|------(2)--|----2----------|-2----------------------------
|2/4-4-4-2-0----|-5-4-2-----|2/4----2^r(2)-0|------------------------------
|------------0--|-------2---|---------------|------------------------------

verse IV

I often think about that summer
The sweat the moonlight and the lace
                                     Har.
|------------------------------------------5-------------------------------
|---------------------------------------5----------------------------------
|--------------------------------------------------------------------------
|--------------------------------------------------------------------------
|--------------------------------------------------------------------------
|--------------------------------------------------------------------------

And I've rarely held another
When I havn't seen her face
Every time I pass a wheatfield

|--------------------------------------------------------------------------
|----------------------------------10------12------12/14~~~----------------
|-----------------------------/9--------9-------9--------------------------
|--------------------------------------------------------------------------
|--------------------------------------------------------------------------
|--------------------------------------------------------------------------

And whatch it dancin'' in the wind

                                    <    <   <   <   <
|--------------------------------------------------------------------------
|-----------------------------------10---9---7---5---3---------------------
|--------------------------------------------------------------------------
|--------------------------------------------------------------------------
|--------------------------------------------------------------------------
|--------------------------------------------------------------------------

Although I know it isn't real
I just can't help but feel
Her hungry arms again
                         1
|----------------------------12--12----------------------------------------
|----------------------12^-----------r(12)p10--12------10------------------
|---------------------------------------------------11---------------------
|--------------------------------------------------------------------------
|--------------------------------------------------------------------------
|--------------------------------------------------------------------------

chorus
Comments