Garth Brooks - That Summer Chords & Tabs

 

That Summer Chords & Tabs

Garth Brooks Chords & Tabs

Version: 1 Type: Bass Tab 0 ratings
1 star 2 stars 3 stars 4 stars 5 stars
comments

That Summer Bass Tab

Auther/Artist:Garth Brooks
Title:That Summer
Transcribed by:Justin Harmon
Email:womenarenice@hotmail.com



Intro
G----------------------------------
D----------------------------------
A-5--5-5---7--7-7---5--4--2--------
E----------------------------------


Verse 1(come in at 2nd part of 1 verse)
G--------------------------------------
D--------------------------------------
A--------------5---7-------------------
E-/5--5--2--2----------5-----5---------


Verse 2,3
G--------------------------------------------------------------------
D--------------------------------------------------------------------
A---------------------------------5--5-5--5--5-5--7--7-7--7--7-7-----
E-5--5-5--5--5-5--2--2-2--2--2-2-------------------------------------
[ Tab from: http://www.guitartabs.cc/tabs/g/garth_brooks/that_summer_btab.html ]
-----------------------------------------------------------------------------
-----------------------------------------------------------------------------
---------------------------------5--5-5--7--7-7------------------------------
-5--5-5--5--5-5--2--2-2--2--2-2------------------5--5-5---5-5-5-5-5-5-5-5----


Chorus
G------------------------------------------------------------------------
D------------------------------------------------------------------------
A-7-7--7--5--5-5--12--12-12--12--12-12--5--5-5--5--5-5--7--7-7--7--7-7---
E------------------------------------------------------------------------

---------------------------------------------------------------------------
---------------------------------------------------------------------------
-9-9--7--5--5-5---12--12-12--12--12-12--5--5-5--7--7-7-----------5---------
---------------------------------------------------------5--5-5-----5-5----

Verse 4
Play the part for the 1st verse then play second part
of 2nd & 3rd verse
Comments