Garth Brooks - Standing Outside The Fire Chords & Tabs

 

Standing Outside The Fire Chords & Tabs

Garth Brooks Chords & Tabs

Version: 1 Type: Tab

Standing Outside The Fire Tab

   
-------------------------------------------------------------------------------
                        Standing Outside The Fire - Garth Brooks
         -------------------------------------------------------------------------------

************************************

| /   slide up
| \   slide down
| h   hammer-on
| p   pull-off
| ~   sustain (let ring)
| b   bend
| v   vibrato
| r  release

************************************

e|-----------------------------------------10-12------------------------------------|
B|----------------------------10-12-12b14~~~~~~~~~-12b14r12---12p10-12p10--10~~~~~--|
G|-----------------------/11--------------------------------------------------------|
D|---10b12r10b12vvvvv---------------------------------------------------------------|
A|----------------------------------------------------------------------------------|
E|----------------------------------------------------------------------------------|
[ Tab from: http://www.guitartabs.cc/tabs/g/garth_brooks/standing_outside_the_fire_tab.html ]
e|-------------------------9-10-9--12b14r12-10-9h10p9------------------12-----------|
B|--10p9\7~~-9~-7-9/10-12-------------------------------12-10--12b14~~~~~~~~r12-10--|
G|----------------------------------------------------------------------------------|
D|----------------------------------------------------------------------------------|
A|----------------------------------------------------------------------------------|
E|----------------------------------------------------------------------------------|

e|-17b19r17\-----------------------------------------------------------12-----------|
B|------------17b19-17vv---14-15-17-15-14---12h14p12\10h12p10--12b14~~~~~~~14r12-10-|
G|----------------------------------------------------------------------------------|
D|----------------------------------------------------------------------------------|
A|----------------------------------------------------------------------------------|
E|----------------------------------------------------------------------------------|
                                                  *note*
e|-------------------------------------------12------------------|
B|---17b19r17p15-14h15p14\12\10------12b14~~~~~~~~14r12p10\7-----|
G|---------------------------------------------------------------|
D|---------------------------------------------------------------|
A|---------------------------------------------------------------|
E|---------------------------------------------------------------|

e|-----------------------------------------------|
B|---5/7-10/12/14--12b14--12b14--10h12p10--------|
G|-----------------------------------------------|
D|-----------------------------------------------|
A|-----------------------------------------------|
E|-----------------------------------------------|

*Note* - you dont really hear the 10 but pull
off from the 12 so you can hear the slide.
I dont know how exactly to describe it but
it is all one quick, fluid motion after you release the bend.