Garth Brooks - Friends In Low Places Chords & Tabs

 

Friends In Low Places Chords & Tabs

Garth Brooks Chords & Tabs

Version: 4 Type: Tab 0 ratings
1 star 2 stars 3 stars 4 stars 5 stars
comments

Friends In Low Places Tab

----------------------------------------------------------------------------
		 Garth Brooks - Friends in Low Places
----------------------------------------------------------------------------
Tabbed by: John Morgan

Tuning: Standard, but Capo on 2nd Fret
[ Tab from: http://www.guitartabs.cc/tabs/g/garth_brooks/friends_in_low_places_tab_ver_4.html ]
e|-----------------------------------------------------3--------------0h2---|
B|---------------0--------------3----------------1----------------3---------|
G|-----------0---------------4---------------2-----------------2------------|
D|-------0-------------------------------2-----------------0----------------|
A|-----------------------2-----------0--------------------------------------|
E|----3--------------4------------------------------------------------------|

e|-------------------3--------------4---|
B|---------------0--------------3-------|
G|-----------0---------------4----------|
D|-------0------------------------------|
A|-----------------------2--------------|
E|----3---------------4-----------------|


Please rate tab.


This tab is truly 100% correct.
Comments