Garrity - Lately Chords & Tabs

 

Lately Chords & Tabs

Garrity Chords & Tabs

Version: 1 Type: Tab 0 ratings
1 star 2 stars 3 stars 4 stars 5 stars
comments

Lately Tab

   
Artist: Garrity
Song: Lately
Album: Carve a Hole in the Mud
Tabbed by: Ben Godby 		beniliusbob@hotmail.com

Standard Tuning

The main rhythm of this song (verse and chorus) is comprised of two chords:

G	320033
Csus2	x32033

The rhythm isn't very difficult so just listen to the song to figure it out
yourself. There are also a few other bits and pieces in this song.

Fill 1

This is played at the beginning of the song and a few other times 
somewhere in there.

Csus2	       G 
[ Tab from: http://www.guitartabs.cc/tabs/g/garrity/lately_tab.html ]
-3--3h5p3-----3-
-3--------3-0-3-
-0------------0-
-2------------0-
-3------------2-
--------------3-

Bridge

"I'll do just fine, I'm doing fine..."

Acoustic:
G	320033
Csus2	x32033
Em	022000

Electric (solo):
-3----3p0--------------3----3p0------
-----------3-0--3-5--------------3-0-
-------------------------------------
-------------------------------------
-------------------------------------
-------------------------------------

After the bridge, the main rhythm on G and Csus2 continues, and there is a 
little arpeggio on the high E and B strings.
Comments