Garmarna - Black Chords & Tabs

 

Black Chords & Tabs

Garmarna Chords & Tabs

Version: 1 Type: Chords 0 ratings
1 star 2 stars 3 stars 4 stars 5 stars
comments

Black Chords

   
Garmarna - Bläck

Intro.

Gm

Vers 1.

       Gm       Dm           C  (Dm)
Ge mig hit lite bläck och en penna

         A#      F        Gm
Jag vill rekommendera ett brev

          Gm     Dm     C  (Dm)
Du ska alltid få se och besinna

        A#           F         Gm
Att jag håller ingen kärare än dig


Refr.

           A#                      F
Förr skall hälleberget rämna såsom is

           Gm                   Dm
Förr skall solen borttappa sitt sken

           Gm         Dm                 C (Dm)
Förr skall skogen bli förvandlad till en duva
[ Tab from: http://www.guitartabs.cc/tabs/g/garmarna/black_crd.html ]
      A#           F        Gm
Innan jag, dig min vän, överger


Mellanspel: (Antagligen helt fel)

e--------------------|---------------|
B--------------------|---------------|
G-----------3h5p3----|----3/5\3------|
D-/5-(5~)--------/5--|--5-5---3/5----|
A---------5----------|----3----------|
E--------------------|---------------|


Vers 2
Förr så spelade på guldtärning
Förr så spelade jag på klaver
I detsamma så övergav mig sorgen
Jag skall aldrig borttappa dig mer

Refr.

e-----------------------------------------------|
B------------3-------------------3--------------|
G--5-5--3/5----5p3------5-5--3/5---5p3p0--0--0--|
D--3-3------------------3-3------------5--3--5--|
A-----------------------------------------------|
E-----------------------------------------------|
Comments