Garbage - Why Do You Love Me Chords & Tabs

 

Why Do You Love Me Chords & Tabs

Garbage Chords & Tabs

Version: 1 Type: Tab 0 ratings
1 star 2 stars 3 stars 4 stars 5 stars
comments

Why Do You Love Me Tab

Iknow this is a little wrong, so please correct me if i have made any
mistakes.


This is the bit when its just after the chorus and the intro and end of verse..
----------------------|
----------------------|
----------------------|
------5---7---5---7---|
------5---7---5---7---|
----0-3-0-5-0-3-0-5-0-|

chorus
Verse: It's a bit diificult to write down the rythm so work it out by listening to the CD...

---------------------------|
---------------------------|
-------5-----4-------------|
----2--5--5--4-------------| X4
----2--3--5--2-------------|
----0-----3----------------|

Pre Chorus:
[ Tab from: http://www.guitartabs.cc/tabs/g/garbage/why_do_you_love_me_tab.html ]
--------------|
--------------|
----5---7-----|
----5---7-----| X2
----3---5-----|
--------------|

Chorus:

Gtr.1

---------------------------|
---------------------------|
-------5-----4-------------|
----2--5--5--4-------------| X4
----2--3--5--2-------------|
----0-----3----------------|

Gtr.2

-----------------------------------|
----12------12------12-----12------|
-------12------12------12-----14---|
-----------------------------------| X3
-----------------------------------|
-----------------------------------|

why do you love me!
why do you love me!
(same as chorus but bounc it on and off)

look i know its a bit wrong so email me at
rohinkavleen@yahoo.com
Comments