Garbage - Why Do You Love Me Chords & Tabs

 

Why Do You Love Me Chords & Tabs

Garbage Chords & Tabs

Version: 1 Type: Chords 7 ratings
1 star 2 stars 3 stars 4 stars 5 stars
comments

Why Do You Love Me Chords

why do you love me ))))by)))) garbage!!!

Tuning: Standard EADGBE

Intro:

---------------------------|
---------------------------|
---------------------------|
------5---7---5---7--------| X2
------5---7---5---7--------|
----0-3-0-5-0-3-0-5-0------|

Verse: listen at the song  ( its hard 2 write the rythm)
 
---------------------------|
---------------------------|
-------5-----4-------------|
----2--5--5--4-------------| X4
----2--3--5--2-------------|
----0-----3----------------|

Pre Chorus:

--------------|
--------------|
----5---7-----|
----5---7-----| X2
----3---5-----|
--------------|

ChOrUs:

GTR.1

---------------------------|
---------------------------|
-------5-----4-------------|
----2--5--5--4-------------| X4
----2--3--5--2-------------|
----0-----3----------------|

GTR.2

-----------------------------------|
----12------12------12-----12------|
-------12------12------12-----14---|
-----------------------------------| X3
-----------------------------------|
-----------------------------------|

Repeat Intro 

Repeat Verse ---> GTR. doesn't play in the first half this time...

Repeat Pre Chorus

Repeat Chorus

Bridge: Part 1
[ Tab from: http://www.guitartabs.cc/tabs/g/garbage/why_do_you_love_me_crd.html ]
--------------|           |-----------------------|
--------------|           |-----------------------|
----5---7-----|           |-----------------------|
----5---7-----| X2 Then   |-----5---7---5---7-----|  X4
----3---5-----|           |-----5---7---5---7-----|
--------------|           |---0-3-0-5-0-3-0-5-0---|  

Bridge: Part 2

----------------------------------------------------------|
----------------------------------------------------------|
----------------------------------------------------------|
--11--11--11--11--9--7--9-----------------------5---7-----| X2
----------10------------------------------------5---7-----|
----------------------------------------------0-3-0-5-0---|
This part without distortion  | This part with distortion


Repeat Pre Chorus


Solo:

----------7----------7----------7--5-----7--|
--8-8---8----8-8---8----8-8---8-------------|
------9----------9----------9---------------|
--------------------------------------------| X2
--------------------------------------------|
--------------------------------------------|

Repeat Chorus with both gtr

End with:

---------------------------|
---------------------------|
---------------------------|
------5---7---5---7--------|
------5---7---5---7--------|
----0-3-0-5-0-3-0-5-0------|





A really hard work but this song its awsome any coments=> treasuremousy@hotmail.com
Ps- please rate it !
by arelia
Comments