Garbage - Stupid Girl Chords & Tabs

 

Stupid Girl Chords & Tabs

Garbage Chords & Tabs

Version: 1 Type: Bass Tab 0 ratings
1 star 2 stars 3 stars 4 stars 5 stars
comments

Stupid Girl Bass Tab

From: John Speas
Bass tab for Stupid Girl by Garbage
Standard Tuning

I just figured this one out when I was listening to it
on the radio.
[ Tab from: http://www.guitartabs.cc/tabs/g/garbage/stupid_girl_btab.html ]
G|------------------------|-----------------------|
D|--------4----2----------|-----------------------|
A|----------------4-------|--2----2----0--2-------|
E|--2------------------2--|--------------------2--|

|------------------------|-----------------------|
|--------4----2----------|-----------------------|
|----------------4-------|--2----2----0--2-------|
|--2--2---------------2--|-----------------------|

This is the riff through the whole song. There is an
eight bar rest at the "Don't belive in..." section
of the song, all the rest is this riff.
Comments