Garbage - I Think Im Paranoid Chords & Tabs

 

I Think Im Paranoid Chords & Tabs

Garbage Chords & Tabs

Version: 1 Type: Tab 0 ratings
1 star 2 stars 3 stars 4 stars 5 stars
comments

I Think Im Paranoid Tab

   
I THINK I'M PARANOID

By Garbage
Album: Version 2.0 (1998)
TABBER: Unknown
   
                
   
   INTRO (Play 2x):   
   
   Guitar 1:

   E|--------3-----1--------------3--------0-----------|
   B|-----0--------------1--3-----------0--------1--3--|
   G|--0--------0-----0--------0-----0--------0--------|
   D|--------------------------------------------------|
   A|--------------------------------------------------|
   E|--------------------------------------------------|
   
   Guitar 2:

   E|--------7-----5-----------------------------5-----|
   B|--8--------8--------6--------8--------6-----------|
   G|-----------------------5--7--------7--------------|
   D|--------------------------------------------------|
   A|--------------------------------------------------|
   E|--------------------------------------------------|
   

   
   
   [On the last Eb5 C5 in the prechorus,
   another guitar plays this]:
   
   Fill 1:
[ Tab from: http://www.guitartabs.cc/tabs/g/garbage/i_think_im_paranoid_tab.html ]
       Eb5            C5
   E|-------------------------------------|
   B|-----10--11------10--11-----10--11---|
   G|--8------------8----------8----------|
   D|-------------------------------------|
   A|-------------------------------------|
   E|-------------------------------------|
   
   
   CHORUS:
   -------
   
   
   [After the Chorus, the two guitars play the verse tab
   twice while a third guitar plays this]:
   
   Fill 2:
   E|------15--13--------------15---13---|
   B|---15----------15-------15----------|
   G|---------------------12-------------|
   D|------------------------------------|
   A|------------------------------------|
   E|------------------------------------|
   
   
   VERSE 2: [Play same as verse 1]
   --------
   
   
   PRE-CHORUS: [Play same chords as before, look below for tab]
   -----------

   
   [In this pre-chorus, Guitar 2 plays this]:
   Fill 3a:

     G5    F5      Eb5      C5
   E|----------------------------|   b = bend
   B|----------------------------|   r = release bend
   G|---12-14b15---14b15r14-12---|   / = slide up
   D|----------------------------|
   A|----------------------------|
   E|----------------------------|
   
  
Comments