Garbage - Drive You Home Chords & Tabs

 

Drive You Home Chords & Tabs

Garbage Chords & Tabs

Version: 1 Type: Tab 0 ratings
1 star 2 stars 3 stars 4 stars 5 stars
comments

Drive You Home Tab

   
Key: 	[ ] : accent
	    :|| : repeat




	C		Emin
E-----------------------------[0]----------------
B-----------[1]------[0]----------0--------------
G---------0-----0-----------0--------0-----------
D------2-----------2-----2-----------------------
A--[3]----------------2--------------------------
e------------------------------------------------
1. It's funny how

	Amin		
E-----------------------------[0]----------------
B-----------[1]------[0]-------0-----------------
G---------2-----2-----------2-----2--------------
D------2-----------2-----2-----------2-----------
A--[0]----------------0--------------------------
e------------------------------------------------
1. Even now,


	Dmin
E-----------1------------------------------------
B--------3---------------------------------------
G-----2------------------------------------------
D--0---------------------------------------------
A------------------------------------------------
e------------------------------------------------
1. You still support me


	G
E----------[3]-----------------------------------
B------------------------------------------------
G-----------0------------------------------------
D--------0-----0---------------------------------
A-----2-----------2------------------------------
e--3---------------------------------------------
1. after all the things that I've


	C		Emin
E-----------------------------[0]----------------:||
B-----------[1]------[0]----------0--------------:||
G---------0-----0-----------0--------0-----------:||
D------2-----------2-----2-----------------------:||
A--[3]----------------2--------------------------:||
e------------------------------------------------:||
1. done,


             C
E--0--0-0-0-0--0--0-0-0-0--0--0-0-0-0--0--0-0-0-0
B--1--1-1-1-1--1--1-1-1-1--1--1-1-1-1--1--1-1-1-1
G--0--0-0-0-0--0--0-0-0-0--0--0-0-0-0--0--0-0-0-0
D--2--2-2-2-2--2--2-2-2-2--2--2-2-2-2--2--2-2-2-2
A--3--3-3-3-3--3--3-3-3-3--3--3-3-3-3--3--3-3-3-3
e--0--0-0-0-0--0--0-0-0-0--0--0-0-0-0--0--0-0-0-0
Walk on shells tonight,                   Can't do

[ Tab from: http://www.guitartabs.cc/tabs/g/garbage/drive_you_home_tab.html ]
      Amin
E--0--0-0-0-0--0--0-0-0-0--0--0-0-0-0--0--0-0-0-0
B--1--1-1-1-1--1--1-1-1-1--1--1-1-1-1--1--1-1-1-1-
G--2--2-2-2-2--2--2-2-2-2--2--2-2-2-2--2--2-2-2-2
D--2--2-2-2-2--2--2-2-2-2--2--2-2-2-2--2--2-2-2-2
A--0--0-0-0-0--0--0-0-0-0--0--0-0-0-0--0--0-0-0-0
e--0--0-0-0-0--0--0-0-0-0--0--0-0-0-0--0--0-0-0-0
 right tonight,                           And you

          C                       Amin
E--0--0-0-0-0--0--0-0-0-0--0--0-0-0-0--0--0-0-0-0
B--1--1-1-1-1--1--1-1-1-1--1--1-1-1-1--1--1-1-1-1
G--0--0-0-0-0--0--0-0-0-0--2--2-2-2-2--2--2-2-2-2
D--2--2-2-2-2--2--2-2-2-2--2--2-2-2-2--2--2-2-2-2
A--3--3-3-3-3--3--3-3-3-3--0--0-0-0-0--0--0-0-0-0
e--0--0-0-0-0--0--0-0-0-0--0--0-0-0-0--0--0-0-0-0
can't say the word 'cause I leap down your throat so up-


     Emin
E--0--0-0-0-0------------------------------------
B--0--0-0-0-0------------------------------------
G--0--0-0-0-0------------------------------------
D--2--2-2-2-2------------------------------------
A--2--2-2-2-2------------------------------------
e--0--0-0-0-0------------------------------------
tight am I,



    Amin	     Amin
E--0--0-0-0-0------0--0-0-0-0--------------------
B--1--1-1-1-1------1--1-1-1-1--------------------
G--2--2-2-2-2------2--2-2-2-2--------------------
D--2--2-2-2-2------2--2-2-2-2--------------------
A--0--0-0-0-0------0--0-0-0-0--------------------
e--0--0-0-0-0------0--0-0-0-0--------------------
I never 


    Asus2	  Asus2
E--0--0-0-0-0---0--0-0-0-0-----------------------
B--0--0-0-0-0---0--0-0-0-0-----------------------
G--2--2-2-2-2---2--2-2-2-2-----------------------
D--2--2-2-2-2---2--2-2-2-2-----------------------
A--0--0-0-0-0---0--0-0-0-0-----------------------
e--x--x-x-x-x---x--x-x-x-x-----------------------
  said		   I was

       F
E--1--1-1-1-1---0--0-0-0-0---1--1-1-1-1--1-------
B--1--1-1-1-1---1--1-1-1-1---1--1-1-1-1--1-------
G--2--2-2-2-2---2--2-2-2-2---2--2-2-2-2--2-------
D--3--3-3-3-3---3--3-3-3-3---3--3-3-3-3--3-------
A--3--3-3-3-3---3--3-3-3-3---3--3-3-3-3--3-------
e--x--x-x-x-x---x--x-x-x-x---x--x-x-x-x--x-------
  perfect,

					C
E---x--x----x---x---0----------------------------
B---1--3----4---3---1----------------------------
G---1--1----1---1---0----------------------------
D---1--1----1---1---2----------------------------
A---x--x----x---x---3----------------------------
e---x--x----x---x---0----------------------------
But I can take you away.
Comments