Garath Gates - Flying Without Wings Chords & Tabs

 

Flying Without Wings Chords & Tabs

Garath Gates Chords & Tabs

Version: 1 Type: Tab 0 ratings
1 star 2 stars 3 stars 4 stars 5 stars
comments

Flying Without Wings Tab

   
Flying Without Wings
Garath Gates
Tabbed By Ian GARDNER
WWW.XAMION.COM

         D       Dsus2/F#        E       Esus4   F#m 
      e |---2---|---0---|       |---0---|---0---|---2---|
      B |---3---|---3---|       |---0---|---0---|---2---|
      G |---2---|---2---|       |---1---|---2---|---2---|
      D |---0---|---4---|       |---2---|---2---|---4---|
      A |---0---|---0---|       |---2---|---2---|---4---|
      E |---x---|---x---|       |---0---|---0---|---2---|

         A       Asus2   Asus4
      e |---0---|---0---|---0---|
      B |---2---|---0---|---3---|
      G |---2---|---2---|---2---|
      D |---2---|---2---|---2---|
      A |---0---|---0---|---0---|
      E |---0---|---0---|---0---|


Verse:


e|------0---------|------0---------|------0---------|------0---------|
B|0-----0---------|0-----0---------|0-----0---------|0-----0---------|
G|--2-------------|--2-------------|--2-------------|--2-------------|
D|----2-----------|----2-----------|4---4-----------|4---4-----------|
A|0---------------|0---------------|4---------------|4---------------|
E|----------------|----------------|----------------|----------------|
..

e|0-----2---------|2-----0---------|------------0---|----------------|
B|--3---3---------|--3-------------|------0-------0-|----------------|
G|----2-----------|----2-----------|------1---1-----|----------------|
D|0-----0---------|0-----0---------|----2-----------|----------------|
A|----------------|----------------|--2-------------|----------------|
E|----------------|----------------|0---------------|----------------|
..

e|------0---------|------0---------|------0---------|------0---------|
B|0-----0---------|0-----0---------|0-----0---------|0-----0---------|
G|--2-------------|--2-------------|--2-------------|--2-------------|
D|----2-----------|----2-----------|4---4-----------|4---4-----------|
A|0---------------|0---------------|4---------------|4---------------|
E|----------------|----------------|----------------|----------------|
....
[ Tab from: http://www.guitartabs.cc/tabs/g/garath_gates/flying_without_wings_tab.html ]
e|0-----2---------|------0---------|------0-------0-|----------------|
B|--3---3---------|------0---------|0-----0-----0---|----------------|
G|----2-----------|------1---------|--2-------2-----|----------------|
D|0-----0---------|----2-----------|----2-----------|----------------|
A|----------------|--2-------------|0---------------|----------------|
E|----------------|0---------------|----------------|----------------|
..

e|------0---------|------0---------|------0---------|------0---------|
B|0-----0---------|0-----0---------|0-----0---------|0-----0---------|
G|--2-------------|--2-------------|--2-------------|--2-------------|
D|----2-----------|----2-----------|4---4-----------|4---4-----------|
A|0---------------|0---------------|4---------------|4---------------|
E|----------------|----------------|----------------|----------------|
..

e|0-----2---------|2-----0---------|------------0---|----------------|
B|--3---3---------|--3-------------|------0-------0-|----------------|
G|----2-----------|----2-----------|------1---1-----|----------------|
D|0-----0---------|0-----0---------|----2-----------|----------------|
A|----------------|----------------|--2-------------|----------------|
E|----------------|----------------|0---------------|----------------|
...

e|------0---------|------0---------|------0---------|------0---------|
B|0-----0---------|0-----0---------|0-----0---------|0-----0---------|
G|--2-------------|--2-------------|--2-------------|--2-------------|
D|----2-----------|----2-----------|4---4-----------|4---4-----------|
A|0---------------|0---------------|4---------------|4---------------|
E|----------------|----------------|----------------|----------------|


e|0-----2---------|------0---------|------0---------|------0---------|
B|--3---3---------|------0---------|0-----0---------|0-----0---------|
G|----2-----------|------1---------|--2-------------|--2-------------|
D|0-----0---------|----2-----------|----2-----------|----2-----------|
A|----------------|--2-------------|0---------------|0---------------|
E|----------------|0---------------|----------------|----------------|
Comments