Gang Green - Livin In Oblivion Chords & Tabs

 

Livin In Oblivion Chords & Tabs

Gang Green Chords & Tabs

Version: 1 Type: Tab 0 ratings
1 star 2 stars 3 stars 4 stars 5 stars
comments

Livin In Oblivion Tab

   
Artist:  Gang Green
Song:  Livin' In Oblivion
Album:  Another Case of Brewtality
Tabbed by:  Rick  (rickrack97@hotmail.com)
AIM:  rickrack97

Chords:

B5  (799xxx)      E2  (x799xx)
A5  (577xxx)      D5  (x577xx)
F#2 (x9-11-11xx)  F2  (x8-10-10xx)
F#5 (244xxx)
E5  (022xxx)

Intro/Chorus:

E|------------------------------------------------|----------------|
B|------------------------------------------------|----------------|
G|-11----------------------7--9--11---------------|--11-11--9--11--|
D|-11-played a lot---9--7--7--9--11-played a lot--|--11-11--9--11--|
A|--9----------------9--7--5--7---9---------------|---9--9--7---9--|
E|-------------------7--5-------------------------|----------------|

Verse:
[ Tab from: http://www.guitartabs.cc/tabs/g/gang_green/livin_in_oblivion_tab.html ]
E|-------------------------------------------------------|
B|-------------------------------------------------------|
G|---------7-----------9-11---------7-----------10-9-7---|
D|--9-9--9-7-7--9-9--9-9-11--9-9--9-7-7--9-9--9-10-9-7---|
A|--9-9--9-5-7--9-9--9-7--9--9-9--9-5-7--9-9--9--8-7-5---|
E|--7-7--7---5--7-7--7-------7-7--7---5--7-7--7----------|

Interlude:  pt. 1 - these chords are played under the solo

E|---------------------|
B|---------------------|
G|------------7--------|
D|--4----2----7----7---|
A|--4----2----5----7---|
E|--2----0---------5---|

Interlude: pt. 2 - the chords above are played palm muted under this

E|--9------9------9------9-------|
B|-----10-----10-----10-----10---|
G|-------------------------------|
D|-------------------------------|
A|-------------------------------|
E|-------------------------------|


Play the chorus a few time and you're done.  Later.
Comments