Gandalf Murphy And The Slambovian Circus Of Dreams - Radio Chords & Tabs

 

Radio Chords & Tabs

Gandalf Murphy And The Slambovian Circus Of Dreams Chords & Tabs

Version: 1 Type: Tab

Radio Tab

Radio 
Gandalf Murphy and the Slambovian Circus of Dreams 

The bass notes are played forte, donít play 
the notes on the d or g string to loudly

This song is probably in a weird tuning but this is easy to play too

Intro: Em C Am7 Em Em/B (Same chords as verse just strummed)

After intro, before chorus:

E|-------------------------|
B|-------------------------|
G|---0---0---0---0---0-----|
D|--2-2-2-2-2-2-2-2-2-2----|
A|-------------------------|
E|-0---0---0---0---0-------|
[ Tab from: http://www.guitartabs.cc/tabs/g/gandalf_murphy_and_the_slambovian_circus_of_dreams/radio_tab.html ]
Verse:
E|----------------------------------------------------------|
B|----------------------------------------------------------|
G|---0---0---0---0---0---0---0---0---0---0---0---0---0------|
D|--2-2-2-2-2-2-2-2-2-2-2-2-2-2-2-2-2-2-2-2-2-2-2-2-2-2-----|
A|-------------3---3---3---3---0---0---0----------/2---2----|
E|-0---0---0-------------------------------0---0------------|

Chorus
E|-----------------------------------------------------------------|
B|--------------------------------------------1---0-------------1--|
G|---0---0---0---0---0---0---0---0---0---0---0---0---0----0----0---|
D|--2-2-2-2-2-2-2-2-2-2-2-2-2-2-2-2-2-2-2-2-2---2---2-2--2-2--2----|
A|-3---3---0---2---3---3---0---2-----------3---2-------------3---2-|
E|---------------------------------0---0-----------0----0----------|

This is most of the song