Gamma Ray - No Stranger Chords & Tabs

 

No Stranger Chords & Tabs

Gamma Ray Chords & Tabs

Version: 1 Type: Tab 0 ratings
1 star 2 stars 3 stars 4 stars 5 stars
comments

No Stranger Tab

Band : Gamma Ray
Album: Somewhere Out In Space
Song : No Stranger (Another Day In Life) 
Music & Lyrics by Kai Hansen 

[Transcripted by LX - 06/2001 ] 

Tunning : down 1/2 step 


INTRO  

  Guit.1
e|.---|---.---|---|Picktroke up---|.---|---.---|---|---|-----------|
B|----3-------6---55--------------|----3-------6---5---88----------|
G|----2-------2---55--------------|----2-------2---5---44----------|
D|02110-----0-3-0-22--------------|02110-----0-3---2---55----------|
A|----0-----0---------------------|----0-----0---0-----------------|
E|--------------------------------|------------------0-------------|
P.M[..]    [.] [.]                [....]    [.] [.] [.] 
[ Tab from: http://www.guitartabs.cc/tabs/g/gamma_ray/no_stranger_tab.html ]
  Guit.2
e|.---.---.---.---.---.---.---.---|.---.---.---.---.---.---.---.---|
B|--------------------------------|--------------------------------|
G|--------------------------------|--------------------------------|
D|--------------------------------|--------------------------------|
A|--------------------------------|--------------------------------|
E|0------with bar-----------------|--------------------------------|
||Guit.1
e|.---|---.---|---|---.---.---.---|.---|---.---|---|---|---.---.---|
B|----3-------6---55--------------|----3-------6---5---8-----|---|-|
G|----2-------2---55--------------|----2-------2---5---4-----5---5-|
D|02110-----0-3-0-22--------------|02110-----0-3---2---5-5-555---5-|
A|----0-----0---------------------|----0-----0---0-----------3---3-|
E|--------------------------------|------------------0-------3---3-|
P.M[..]    [.] [.]                [....]    [.] [.] [.] [...] 

VERSE 

I see a hole in the sky But don't ask me why I'm so down and lonely
  Guit.1
e|.---.---.---.---.---.---.---.---|.---.---.---.---3---.---.---.---|
B||---------------|---------------||---------------3-----------|-|-|
G|7---------------10--------------|5---------------0-----------5-5-|
D|7---------------7---------------|5---------------0-----------5-5-|
A|5---------------8---------------|3---------------x-----------3-3-|
E|5-------------------------------|3---------------3-----------3-3-|

No one will understand why There's a voice in my head and I know it's the only
  Guit.1
e|.---.---.---.---.---.---.---.---|.---.---.---.---3---.---.---.---|
B||---------------|---------------||---------------3---------------|
G|7---------------10--------------|5---------------0---------------|
D|7---------------7---------------|5---------------0---------------|
A|5---------------8---------------|3---------------x---------------|
E|5-------------------------------|3---------------3---------------|
Comments