Gamma Ray - Gardens Of The Sinner Chords & Tabs

 

Gardens Of The Sinner Chords & Tabs

Gamma Ray Chords & Tabs

Version: 1 Type: Tab 0 ratings
1 star 2 stars 3 stars 4 stars 5 stars
comments

Gardens Of The Sinner Tab

Gardens Of The Sinner
Band: Gamma Ray
Album: Powerplant(1999)
Transcribed by Yves Vermeersch

I especially love this one, it's one of my favourites on the "Powerplant" album.
ENJOY !!!

Tune down ½ step.

Intro (4 times)
E---------------------------------------|--------------------------------
B---------------------------------------|--------------------------------
G---------------------------------------|--------------------------------
D--13-13p11\9-11-11p9\8-9-9p8\6-8-8p6\4-|--13-13p11\9-11-11p9\8-9-9p8\6-8
A---------------------------------------|--------------------------------
E---------------------------------------|--------------------------------

E--------------|-----------------------------------------|---------------
B--------------|-----------------------------------------|---------------
G--------------|-----------------------------------------|---------------
D--9-6---\9-8~-|--4-------------------5-5-----repeat 4x--|---------------
A------7-------|--2-22222-22222-22222-3-3----------------|---------------
E--------------|-----------------------------------------|---------------

As the heat is rising...                   
E------------------------------------------------------------------------
B------------------------------------------------------------------------
G---------------------------------------------7--------------------------
D---------------------------------------------7--7---------------------4-
A--2-22222-22222-22222-22222-22222-22222....--5--7---------------5-5-7-2-
E------------------------------------------------5-3-33333-33333-3-3-5---

Then the horsemen ride out...
E-------------------------|----------------------------------------------
B-------------------------|----------------------------------------------
G-------------------------|----------------------------------------------
D--4---7---7---4---7---7--|-----------------------------------------4----
A--2---5---7---2---5---7--|--222222-5-222222-5-222222-5-222222-5...-4----
E----------5-----------5--|-----------------------------------------2---- 

Take me to the gardens of the sinner...
E----------------------|----------------------------------------------|--
B----------------------|----------------------------------------------|--
G--7-----4--------7----|--7-----4--2----------------------------------|--
D--7--7--4--4--5--7--7-|--7--7--4--2--5--5--7--4------------------5-7-|--
A--5--7--2--4--5--5--7-|--5--7--2--0--5--5--7--4------------------5-7-|--
E-----5-----2--3-----5-|-----5--------3--3--5--2-222222-22222-222-3-5-|--
[ Tab from: http://www.guitartabs.cc/tabs/g/gamma_ray/gardens_of_the_sinner_tab.html ]
E-------------------------------------------|----------------------------
B-------------------------------------------|----------------------------
G-------------------------------------------|----------------------------
D----4-------------------5-5-----repeat 4x--|----------------------------
A----2-22222-22222-22222-3-3----------------|----------------------------
E-------------------------------------------|----------------------------

E-------------------------|----------------------------------------------
B-------------------------|----------------------------------------------
G-------------------------|----------------------------------------------
D--4---7---7---4---7---7--|-----------------------------------------4----
A--2---5---7---2---5---7--|--222222-5-222222-5-222222-5-222222-5...-4----
E----------5-----------5--|-----------------------------------------2---- 

Take me to the gardens of the sinner...
E----------------------|----------------------------------------------|--
B----------------------|----------------------------------------------|--
G--7-----4--------7----|--7-----4--2----------------------------------|--
D--7--7--4--4--5--7--7-|--7--7--4--2--5--5--7--4------------------5-7-|--
A--5--7--2--4--5--5--7-|--5--7--2--0--5--5--7--4------------------5-7-|--
E-----5-----2--3-----5-|-----5--------3--3--5--2-222222-22222-222-3-5-|--
                                               
                                                          Guitar solo
E--------------------|-----------------------------|-------------|-------
B--------------------|-----------------------------|------6------|-------
G--------------------|-----------------------------|---7--5--5---|-------
D--4--4---4--4---4--4|-----------------------------|---7--3--5---|--3--5-
A--2--2---2--2---2--2|--2-2-3-5-3-0-2222-2222-2222-|---5-----3---|--1--3-
E--------------------|-----------------------------|-------------|-------

E--------------------------|------------------------------|--------------
B--------------------------|------------------------------|--------------
G--------------------------|------4-----------4-----------|--------------
D--------------------------|--6---4---4---6---4---4-------|--------------
A--22222-22222-22222-22222-|--6---2---4---6---2---4-------|--------------
E--------------------------|--4-------2---4-------2-2-2-2-|--------------

Take me to the gardens of the sinner...
E----------------------|----------------------|--------------------------
B----------------------|----------------------|--------------------------
G--7-----4--------7----|--7-----4--2----------|--9-----6--------9-----9--
D--7--7--4--4--5--7--7-|--7--7--4--2--5--5--7-|--9--9--6--6--7--9--9--9--
A--5--7--2--4--5--5--7-|--5--7--2--0--5--5--7-|--7--9--4--6--7--7—-9--7--
E-----5-----2--3-----5-|-----5--------3--3--5-|-----7-----4--5-----7-----

E------------------------------------------------------------------------
B------------------------------------------------------------------------
G-----6------------------------------------------------------------------
D--9--6--9--7--7--9------------------------------------------------------
A--9--4--9--7--7--9------------------------------------------------------
E--7-----7--5--5--7------------------------------------------------------
                                               	





Comments