Gaelic Storm - Heart Of The Ocean Chords & Tabs

 

Heart Of The Ocean Chords & Tabs

Gaelic Storm Chords & Tabs

Version: 1 Type: Tab 0 ratings
1 star 2 stars 3 stars 4 stars 5 stars
comments

Heart Of The Ocean Tab

   
-------------------------------------------------------------
	 Gaelic Storm - Heart of the ocean
       http://www.gaelicstorm.com/index2.html
-------------------------------------------------------------

Tabbed by:DoubleAron
Email:a_ramcharitar@hotmail.com

Tuning: I'm not sure of the tuning but it's the best I could do with
E A D G B E tuning

Intro:
	Am x2	       em7+ Bstring 1st fret	 c9
e|---------------------------------------------------------|
B|--------1-------1-----------1-----1----------3-----3-----|
G|------2-------2-----------0-----0----------x-----x-------|x4
D|----2-------2-----2-----2-----2-----2----2-----2-----2---|
A|--0-------------------2----------------3-----------------|
E|---------------------------------------------------------|


Main song	hold for 5 beats			I must go...
[ Tab from: http://www.guitartabs.cc/tabs/g/gaelic_storm/heart_of_the_ocean_tab.html ]
	 Am			Dm		Am
e|--------------------------------2-----2------------------|
B|---------1-----1--------------3-----3----------1---------|
G|-------2-----2--------------2-----2-----2------2---------|
D|-----2-----2--------------0--------------------2---------|
A|---0-----------------------------------------------------|
E|---------------------------------------------------------|

 			Where the black water rolls     
	Am	c9
e|---------------------------------------------------------|
B|------1-------3------------------------------------------|
G|------2-------x------------------------------------------|
D|------2-------2------------------------------------------|
A|------0-------3------------------------------------------|
E|---------------------------------------------------------|

and back to main tune


| /  slide up
| \  slide down
| h  hammer-on
| p  pull-off
| ~  let it ring
| ()  harmonic
| x  Mute note

===============================================================================
Comments