Gabrielle - Sunshine Chords & Tabs

 

Sunshine Chords & Tabs

Gabrielle Chords & Tabs

Version: 1 Type: Tab 0 ratings
1 star 2 stars 3 stars 4 stars 5 stars
comments

Sunshine Tab

   
intro:

       Fm   Cm       Gm           G#
 |--------------3-------3-3h4-3-----4/6--|
 |----1--------4-------3-----------------|
 |---1-----------------------------------|
 |--3--------5--------5-------------6/8--|
 |----------3----------------------6-----|
 |-1-----------------3------------4------|

verse:

     Fm   Cm       Gm           G#
 |--------------3-------3-3h4-3----------|
 |----1--------4-------3-----------------|
 |---1-------------------------------5---|
 |--3--------5--------5-------------6----|
 |----------3----------------------6-----|
 |-1-----------------3------------4------|
[ Tab from: http://www.guitartabs.cc/tabs/g/gabrielle/sunshine_tab.html ]
pre-chorus:
  
 G#    D#          A#    Bb      G#     Bb
 |----------6-----6-----6----1------------------------------|
 |----4----8-----8-----6------3-------4------3--------------|     
 |---5-------------------------3-----5------3-3-------------|
 |--6-----------8---------------3----------3----------------|
 |--------6----6------8-----1-------6-----1-----------------|
 |-4-----6-----------6-----1-------4------------------------|

Chorus:

 (all strumming)
 
 D#-A#-Gm7-G#-D#-Gm7-Cm7-G#

 (Repeat verse and chorus)

Bridge:
 
 G#          Gm7               G#
 you are the calm and i am the storm...

 (raise chorus 1 fret higher)
 
 End...

 Vanessa V. (",)
Comments