Gabriel Rios - Broad Daylight Chords & Tabs

 

Broad Daylight Chords & Tabs

Gabriel Rios Chords & Tabs

Version: 1 Type: Tab 0 ratings
1 star 2 stars 3 stars 4 stars 5 stars
comments

Broad Daylight Tab

   
-------------------------------------------------------------------------------
			     Broad Daylight - Gabriel Rios
-------------------------------------------------------------------------------
Tabbed by: Bas	
Email: b_vice@hotmail.com

I don't know if this is a very new artist, but I thought it sounds good so I tabbed the song of him.

Tuning: EADGBe
[ Tab from: http://www.guitartabs.cc/tabs/g/gabriel_rios/broad_daylight_tab.html ]
Intro/Verse/Outro
e|---------------------------------------------------------------------------|
B|--12---12----12----12----12----12----12------------------------------------|
G|9----9---------------------------------------------------------------------|
D|----------12----12----11----11----10----10---------------------------------|
A|---------------------------------------------------------------------------|
E|---------------------------------------------------------------------------|

There are some parts you can fill with this:
e|-9-------------------------------------------------------------------------|
B|-10------------------------------------------------------------------------|
G|-11------------------------------------------------------------------------|
D|-11------------------------------------------------------------------------|
A|-9-------------------------------------------------------------------------|
E|-9-------------------------------------------------------------------------|



| /  slide up
| \  slide down
| h  hammer-on
| p  pull-off
| ~  vibrato
| +  harmonic
| x  Mute note

mail any comments to: b_vice@hotmail.com
===============================================================================
Comments