Gabriel Peter - Family Snapshot Chords & Tabs

 

Family Snapshot Chords & Tabs

Gabriel Peter Chords & Tabs

Version: 1 Type: Bass Tab 2 ratings
1 star 2 stars 3 stars 4 stars 5 stars
comments

Family Snapshot Bass Tab

                                Family Snapshot
                                  Peter Gabriel
                                                      Transcribed by Justin Benz


    Piano, Vocals     0:44  Fretless Bass                                       
G---|-----------------|/12---------------17--15--|--14------------19--15--------
D---|-----------------|-----------12-------------|------15----------------------
A---|-----------------|--------------------------|------------------------------
E---|-----------------|--------------------------|------------------------------
                                                                                

                                                                                
G---------|------/15-----------------------15-----|----------------------|------
D---12/13\|--12---13-----12-----12--12/13---------|-----13---------------|------
A---------|---------------------------------------|------------13--------|------
E---------|---------------------------------------|----------------------|------
                                                                                

                                                                                
G---/12---------/17\---|---------------19--15------|--------15--15--------------
D----------------------|/15--15----------------13--|/12-------------------12----
A----------------------|---------------------------|----------------------------
E----------------------|---------------------------|----------------------------
                                                                                

                                      1:17                                      
G--------15--15--|--------------------|-----------------|-----------------------
D---/13----------|--12---/(13)--------|-----------------|-----------5-----------
A----------------|--------------------|--5--------6-----|--8--------------------
E----------------|--------------------|-----------------|-----------------------
                                                                                

                                                                                
G------|--------------------------|----------------------|-----------------|----
D---12\|--------------------------|----------------------|-----------------|----
A------|--5--------6--------------|-----------8\---------|--5--------6-----|----
E------|--------------------8--6--|--5-------------3-----|-----------------|----
                                                                                

                                                                                
G------------------|-----------------------------|-----------------|------------
D------------5-----|-----------------------------|-----------------|------------
A---8--------------|--5--------6-----------------|-----------------|--5---------
E------------------|--------------------8--7--6--|--5--------3-----|------------
                                                                                

                                                                                
G------------|--------------------------|-----------------12--------------------
D------------|--------------------------|------12--------------------12---------
A------6-----|--8--------10-----10--10--|--10---------10---------10-------------
E------------|--------------------------|---------------------------------------
                                                                                

             1:58                                                               
G------------||---------------------------|--------------------------|----------
D------------||*--------------------------|--------------------------|----------
A---x--10\---||*--------------------------|--------------------------|----------
E------------||---3--3--3--3--3--3-----3--|--3--3--3--3--3--3-----3--|--1--1----
                                                                                

                                                                                
G---------------------|----------------------------|----------------------------
D---------------------|-----0--1---------/5--3-----|----------------------------
A---------------------|-----------3--1----------3--|--1--1-----1--1--1-----1----
E---1-----1--1--1-----|--1-------------------------|----------------------------
                                                                                
[ Tab from: http://www.guitartabs.cc/tabs/g/gabriel_peter/family_snapshot_btab.html ]
                                                                                
G---|--------------------------|--------------------------|---------------------
D---|--------------------------|--------------------------|---------------------
A---|--1--1-----1--1--1-----1--|--1--1-----1--1--1-----1--|--1--1-----1--1------
E---|--------------------------|--------------------------|---------------------
                                                                                

             2:29                                                               
G-------------||-----------------|-----------------|----------------------------
D------------*||-----------------|-----------5-----|----------------------------
A---1-----1--*||--5--------6-----|--8--------------|--5--------6----------------
E-------------||-----------------|-----------------|-----------------8--7--6----
                                                                                

                                                                                
G---|-----------------------------3\2--------|-----------------|----------------
D---|-----------------------5----------3-----|-----------------|-----------5----
A---|--------------------5-----5-------------|--5--------6-----|--8-------------
E---|--5-----6-----3-------------------------|-----------------|----------------
                                                                                

                                                                                
G------------|--------------------------|-----------------|---------------------
D---------12\|--------------------------|-----------------|---------------------
A------------|--5--------6--------------|-----------------|---------------------
E------------|-----------------8--7--6--|--5--------3-----|--4-----4-----4------
                                                                                

                                                                                
G------------|--------------------------|--------------------------|------------
D------------|-----5--------------------|--------------------------|-----5------
A------------|--------------------------|--------------------------|------------
E------4-----|--3-----3--3--3--3--3--3--|--4-----4-----4-----4-----|--3---------
                                                                                

                                                                                
G---------------------|-----------------------|-----------------|---------------
D---------------------|-----------------------|-----------------|/13------------
A---------------------|-----------------------|--4--------------|---------------
E---3--3--3--3--3--3--|--4--------4-----6-----|-----------------|---------------
                                                                                

                               3:20                                             
G---------|--------------------|---------------------------------|--------------
D---------|--(13)--------------|--10-----11-----12-----12/13-----|/15-----------
A---------|--------------------|---------------------------------|--------------
E---------|--------------------|---------------------------------|--------------
                                                                                

                                                                                
G-------------/17--|--18--------10----------|------------------13------|--------
D-------17--18-----|----------------11------|----------10----------10--|--11----
A---15-------------|--------------------10--|--11----------13----------|--------
E------------------|------------------------|------11------------------|--------
                                                                                

                                                                                
G---------------|-------------------------|---------------------|---------------
D---------------|--------------/15--------|--13h15p13-----------|---------------
A---------------|--13-----15--------------|---------------------|--11-----------
E---------------|-------------------------|---------------------|---------------
                                                                                

          Vocals, Piano                                                         
G---------|-----------------||--------------------------------------------------
D---------|-----------------||--------------------------------------------------
A---------|-----------------||--------------------------------------------------
E---------|-----------------||--------------------------------------------------
                                                                                



================================================================================
==                Created with a demo version of BUCKET O' TAB                ==
==                  tablature creation software for Windows                   ==
==                       http://www.his.com/~gse/bucket                       ==
================================================================================




Comments