Gabriel Peter - Dont Give Up Chords & Tabs

 

Dont Give Up Chords & Tabs

Gabriel Peter Chords & Tabs

Version: 1 Type: Bass Tab 0 ratings
1 star 2 stars 3 stars 4 stars 5 stars
comments

Dont Give Up Bass Tab

Don't Give Up by Peter Gabriel with Tony Levin on Bass.

G----------8--7-----------7--8-----------8--7-----------7--8-|
D---------10--8-----------8-10----------10--8-----------8-10-|
A---10-10----------10-10----------10-10----------10-10-------|
E-8--------------8--------------8--------------8-------------|
[ Tab from: http://www.guitartabs.cc/tabs/g/gabriel_peter/dont_give_up_btab.html ]
G------------12-10----------10-12--\-----------8--7-----------7--8-|
D------------13-12----------12-13--\-----------8--8-----------8--8-|
A------13-13----------13-13--------------8--8-----------8--8-------|
E-/-11-------------11-----------------6--------------6-------------|

G----------------8--7-----------------------7--8-|-------|  H  -  Hammer On
D---------------10--8-----------------------8-10-|-------|  /  -  Slide Up
A---------10-10----------------------10-10-------|-------|  \  -  Slide Down
E-6--/--8--------------H--8--8--8--8-------------|-1-etc.|

Tony Levin probably used a five string Erine Ball Music Man for this song.
The bass solo, near the end of the song has a has low C in it.
I did this because I a big TL fan. Someday I'll get that tone.
***END DREAM #531***

Have fun people!  pete.paluch@microserve.com

Comments