Gabe Bondoc - Worth Your While Chords & Tabs

 

Worth Your While Chords & Tabs

Gabe Bondoc Chords & Tabs

Version: 1 Type: Tab

Worth Your While Tab

   
Artist: Gabe Bondoc
Song: Worth Your While
Tab Author: Tabbed by Win[12.28.84]
Date Tabbed: Wed, Feb.15.06 11am.

Tuning 1/2 Step: Eb Ab Db Gb Bb Eb

Comments:
This is the way I've interpreted the song. Play what ever way you want.
I play it half step just cause I like to.
Play around with the chord this is pretty much the whole song.
These chord are regular tune. You can have normal tune or half step down tune.
Just play the chords like regular tune.

[ Tab from: http://www.guitartabs.cc/tabs/g/gabe_bondoc/worth_your_while_tab.html ]
Chords
 -    -    -    -
 -    -    -    -
 5    5    -    5
 3    5    3    5
 5    0    5    3
 -    -    6    -
------------------
D6   A?   A#?   C5

Intro
-----------------------------------------------|
-----------------------------------------------|
---5---5--------5----------5-5-----5-5------5--|
--3---3---3---5----------3----3---3---3--3--5--|
-5---3---5--3-----0h2p0-5------5-3-----3-5--3--|
--------6--------------------------6-----------|

Verse
-----------------|
-----------------|
---5-5-5-------5-|
--3--5-5--3-3--5-|
-5---0-0--5-5--3-|
----------6-6----|

PRe-Chourus
------------------|
------------------|
------5-5-------5-|
-3-3--5-5--3-3--5-|
-5-5--3-3--5-5--3-|
-6-6-------6-6----|

Chorus
Do the samething.

--------------|
--------------|
-5--5-----5---|
-3--5--3--5---|
-5--0--5--3---|
-------6------|
--------------|