Gabe Bondoc - Stronger Than Chords & Tabs

 

Stronger Than Chords & Tabs

Gabe Bondoc Chords & Tabs

Version: 1 Type: Tab 0 ratings
1 star 2 stars 3 stars 4 stars 5 stars
comments

Stronger Than Tab

   
-----------------------------------------------------------------------------
SONG TITLE: Stronger Than
ARTIST:     Gabe Bondoc
TABBED BY:  Franklin Dean
-----------------------------------------------------------------------------
TUNING: Standard Tuning
 6 5 4 3 2 1  (String Number)
|E|A|D|G|B|E| (Low to high)
-----------------------------------------------------------------------------
NOTE: To play the album version of Stronger Than, you will have to tune your
guitar down a half step.
-----------------------------------------------------------------------------
DIFFICULTY LEVEL: Easy (Well, sorta, haha)
-----------------------------------------------------------------------------
CHORDS USED: (8x998x)  (7x777x)  (5x555x)  (x5454x)  (3x443x)  (4x343x)
-----------------------------------------------------------------------------

INTRO RIFF: This is used to start off most of the verse patterns as well.

(VERSION 1)          (VERSION 2)
e|------------------|----------------10/12---|
B|------------------|-------8-10/12----------|
G|------------7h9---|--7-9-----------7/9-----|
D|------5-7/9-------|-------5-7/9------------|
A|--5-7-------------|--5-7-------------------|
E|------------------|------------------------|

*Version 2 is from the album version.
-----------------------------------------------------------------------------

VERSE/CHORUS
[ Tab from: http://www.guitartabs.cc/tabs/g/gabe_bondoc/stronger_than_tab.html ]
(PATTERN 1)
e|-----------------------------------------------------|
B|--8-8---88--8-8--5-5---55--5-5--3-3---33--3-3----3---|
G|--9-9---99--9-9--5-5---55--5-5--4-4---44--4-4----4---|
D|--9-9---99--9-9--5-5---55--5-5--4-4---44--4-4----4---|
A|--x---------x-x--x---------x-x--x---------x-x----x---|
E|--8---8-----8-8--5---5-----5-5--3---3-----3-3--0-3---|

(PATTERN 2)
e|------------------------x-----------------------|
B|--8-8---88--8-8--5-5-4~-x--3-3---33--3-3----3---|
G|--9-9---99--9-9--5-5-5~-x--4-4---44--4-4----4---|
D|--9-9---99--9-9--5-5-4~-x--4-4---44--4-4----4---|
A|--x---------x-x--x-x-5~-x------------x-x----x---|
E|--8---8-----8-8--5-5----x--3---3-----3-3--0-3---|

-----------------------------------------------------------------------------

BRIDGE: Play pattern 1 once and pattern 2 for the rest of it.

(PATTERN 1) 
e|----x-------------------|
B|--5-x-5-5-5/6-7--8--8---|
G|--5-x-5-5-5/6-7--7--7---|
D|--5-x-5-5-5/6-7--9--9---|
A|--x-x-x-x-x-x-x--7------|
E|--5-x-5-5-5/6-7---------|

(PATTERN 2)
e|----x-------------------|
B|--5-x-5-5-5/6-7--7--6---|
G|--5-x-5-5-5/6-7--7--7---|
D|--5-x-5-5-5/6-7--7--6---|
A|--x-x-x-x-x-x-x--x--7---|
E|--5-x-5-5-5/6-7--7------|

-----------------------------------------------------------------------------

SOLO: As tabbing out the entire solo would be too much of a hassle, I shall
simply provide you with the scale that Gabe uses, so that you can create your
own, or use it to figure it out yourself.

e|--------------------------------12-15---|
B|--------------------------12-15---------|
G|--------------------12-14---------------|
D|--------------12-14---------------------|
A|--------12-14---------------------------|
E|--12-15---------------------------------|

-----------------------------------------------------------------------------
(x= mute/slap) (/= slide up/down) (h= hammer on) (p= pull off) (~= let ring)
Comments