G Spot - Life On The Road Chords & Tabs

 

Life On The Road Chords & Tabs

G Spot Chords & Tabs

Version: 1 Type: Tab 0 ratings
1 star 2 stars 3 stars 4 stars 5 stars
comments

Life On The Road Tab

   
LIFE ON THE ROAD

Words by Bob Feeser/ Music by Kyle Barnhill

INTRO:
e[-2---------2----------3-------------2---2-2-2---3---3-3--------------------2-2--|
b[----3--------3----------3----------3---3-3-3----3---3-3-----3--3-1-0-----1-3----|                                          
g[-------2--------2----------2-------2---2-2-2----2---2-2-----2--0-0-0-----2-2----|
d[-0--------------------0------------0---0-0-0----0---0-0-----0--0-0-0-----2-0----|
a[--------------------------------------------------------------------------------|
E[--------------------------------------------------------------------------------|
                                             Dm         D          D
Life on the road
                                                D         A         A
Split us apart
                                               Am       C         C
                                                  I headed west
                                               D        A6          A6
Away from you
                                 A7-5           Dm          Am           E
I am trying to make it through.

CHORUS:
                                            N.C
Life on the road
Ain?t what it ought to be
Life on the road
I need you with me.
[ Tab from: http://www.guitartabs.cc/tabs/g/g_spot/life_on_the_road_tab.html ]
                                         E              E                 E
I look at your picture
                                             Am      Am         Am
it ain?t enough
                                            Dm         Dm         Dm
I need your touch
				       A         A          A
I need you here
			 E                                    Am            E
Oh, I?m not gonna make it through.
CHORUS X 2
 SOLO
OUTRO:
Life on the road
Ain?t what it ought to be.


CHORUS:
e]-------------------------------------------------------------------------
G]-9--999--------------------------------9--999----------------------------
D]-7--777---9--99---11-11---7---------7--777---11-11---99--7---------------
A]------------7--77----9--9---5----------------------9-9----77--5----------
E]-------------------------------------------------------------------------


SOLO:

e]-12--------------------------------9-10-12--------------9---
B]-------12--12^14--10-10---14--------------12(1/4)-----------
G]------------------------------------------------------------
D]------------------------------------------------------------
A]------------------------------------------------------------
E]------------------------------------------------------------

e]-----7^9^7-------5^7^5-------3^5^3---0------2---2--0-----------
B]---------------------------------------------------2-----2--1--
G]9--------------7-------------5------------------3------3--0----
D]---------------------------------------------------------------
A]---------------------------------------------------------------
E]---------------------------------------------------------------


END OF OUTRO:
Use after strumming the E chord
in the last segment


                                                         play at the third pick-up
 e]---------------------0-----0---------------0--------|
B]---------------0-------0-----0--------------0--------|
G]----------1------1-------------1------------1--------|
D]----2-------2---------------------2---------2--------|
A]-------2-----------------------------2------2--------|
E]-0------------------------------------------0--------|


TRANSCRIBED BY KYLE BARNHILL
Comments