G Pitka - Reminolutionary Wonders Chords & Tabs

 

Reminolutionary Wonders Chords & Tabs

G Pitka Chords & Tabs

Version: 1 Type: Tab 0 ratings
1 star 2 stars 3 stars 4 stars 5 stars
comments

Reminolutionary Wonders Tab

Artist:G Pitka                                    May 03, 2004
Song:Reminolutionary Wonders                      2:00 P.M.
Tabbed By:G pitka
Standard Tuning
 This is my first tab and my song i made up is right here but it's not
 so long. The song is longer but I don't want to put it down.
1---0-----------------------------------------------------------------
2--3-3----3-------1-3-0-----------------------------------------------
3-----0----4-5-------0--2-4s5-----------------------------------------
4------2s3-------2----------------------------------------------------
5-3-------------0-----------------------------------------------------
6---------------------------------------------------------------------

1----0------0-3-0-0----0-0---0-2---0---0------------------------------
2---3-3----3-3----3-3-3-3-3-3-3-3-3-3-3-3-0---0----------0---0---0----
3------0--2-------0--0-----0-----0---0-----2-2-2-2-0-0-2--2-2-2-2-----
4--2-----0--------2-------------------------0---0----------0---0------
5-3---------------3----2-2---0-3---2---0------------------------------
6-----------------------------------------3---2----0-0---3---2---3----
[ Tab from: http://www.guitartabs.cc/tabs/g/g_pitka/reminolutionary_wonders_tab.html ]
1-----------------------------------------------------0---------------
2---3----3----0-0-2--3---3---3---3---3---3---3---3-----3---3----------
3-4--4-4--2-2---------4-4-4---2-2-2---4-4-4-4-2-2-2-2---2---4---------
4-----5----4---------5-5-5---4-4-4---5-5-5-5-4-4-4-4-----4---5-4------
5---------------------------------------------------------------------
6---3----2----0-0-----------------------------------------------------

1-----0-----0--2h3p2---2h3p2---2h3p3---2h3p2---2h3p2---2h3p2----------
2-3----3---3--------3-3-----3-3-----3-3-----3-3-----3-3-----3-3-------
3--2-2--2-2----------0-------0-------0-------0-------0-------0--------
4---4-4--4-----2-------0---------------0-------2-------0--------------
5------------------------------2--------------------------------------
6---------------------------------------------------------------------

1-2----------0--------------------------------------------------------
2--3---3------3-3--3------3--------0----------------------------------
3---2---4--------2--4-4----2-------3----------------------------------
4----4---5-4-----------5----4-0----0----------------------------------
5-------------------------------2--2----------------------------------
6--------------------------------3-3----------------------------------
















Comments