G Love And Special Sauce - Gimme Some Lovin Chords & Tabs

 

Gimme Some Lovin Chords & Tabs

G Love And Special Sauce Chords & Tabs

Version: 1 Type: Tab 0 ratings
1 star 2 stars 3 stars 4 stars 5 stars
comments

Gimme Some Lovin Tab

   
Artist: G Love & Special Sauce
Song: Gimme Some Lovin'
Tabbed by: Shawn S (trebor79@wabash.net)
2-18-01

This is an awesome song, and not really all that hard to play once you get the timing and all down. 
Listen to the CD to help get rythm and such. G plays it a lil more complicated than this, 
but this is pretty darn close.

Intro:

                          C      F                   
|--3---3-3p0-3p0---|3-3/5-----------|----3p1-3-1-----|
|------------------|------1---------|----------------|
|------------------|--------0---2---|2---------------|
|------------------|----------2---3-|--3-3---3-3-----|
|3---3-----------3-|------3-----0---|----------------|
|------------------|----------------|----------------|
[ Tab from: http://www.guitartabs.cc/tabs/g/g_love_and_special_sauce/gimme_some_lovin_tab.html ]
 C          G             C                          
|------------------|----------------|----------------|
|1--------1---3----|----3-1-----1---|--1-------------|
|---0---0-------0--|--0-----0-----0-|----0-----------|
|-----2------------|0---------2-----|2-----2---------|
|3-----------------|------3---------|----------------|
|-----------3------|----------------|----------------|

Chords:

C F C G C (Repeat over and over;finger-pick these chords...
adding a hammeron or pulloff here and there as needed.)

Here's part of the slide solo-dealie.
I say part, because there is some bass over the top of that to
embellish it, but I haven't sat down and figured it out yet.

|-----------------------------|
|-3/5-3-1-0-1-3-3/5-3-1-3-1---|
|-----------------------------|
|-----------------------------|
|-----------------------------|
|-----------------------------|

That's most of the song, hope that helps you out. Comments, suggestions,
and additions welcome.

Comments