Futureheads - Skip To The End Chords & Tabs

 

Skip To The End Chords & Tabs

Futureheads Chords & Tabs

Version: 1 Type: Tab

Skip To The End Tab

   
----------------------------------------------------------------------------
			     Skip to the End - Futureheads
----------------------------------------------------------------------------
Tabbed by: Jake_LPMan
Email: you can't know!

New song from new album, News and Tributes. 99% sure this is correct. Any mistakes, post 
comment. Timing is accurate, listen to track to get it perfect. It's usually on MTV2 
other song, lol. Hopefully it's only 3 chords.

Tuning: Standard

INTRO
        B      Bm      E2     B        B      Bm      E2     B
e|------7-7-7--7-7-7---7-7-7--7-7-7----7-7-7--7-7-7---7-7-7--7-7-7---------|
B|------7-7-7--7-7-7---9-9-9--7-7-7----7-7-7--7-7-7---9-9-9--7-7-7---------|
G|------8-8-8--7-7-7---9-9-9--8-8-8----8-8-8--7-7-7---9-9-9--8-8-8---------|
D|------9-9-9--9-9-9---9-9-9--9-9-9----9-9-9--9-9-9---9-9-9--9-9-9---------|
A|------9-9-9--9-9-9---7-7-7--9-9-9----9-9-9--9-9-9---7-7-7--9-9-9---------|
E|--2---7-7-7--7-7-7----------7-7-7----7-7-7--7-7-7----------7-7-7---x2----|

VERSE

e|---7------------------7--------------------------------------------------|
B|---7------------------7--------------------------------------------------|
G|---8------------------7--------------------------------------------------|
D|---9------------------9--------------------------------------------------|
A|---9------------------9--------------------------------------------------|
E|---7------------------7--------------------------------------------------|
  If I could cheat, i'd skip to the end.

e|-----7----------------7--------------------------------------------------|
B|-----9----------------7--------------------------------------------------|
G|-----9-let ring-------8--------------------------------------------------|
D|-----9----------------9--------------------------------------------------|
A|-----7----------------9--------------------------------------------------|
E|----------------------7--------------------------------------------------|
  And deciiide if it's worth going through with.

e|-7----------------------------7------------------------------------------|
B|-7----------------------------7------------------------------------------|
G|-8----------------------------7------------------------------------------|
D|-9----------------------------9------------------------------------------|
A|-9----------------------------9------------------------------------------|
E|-7----------------------------7------------------------------------------|
  Skip to the last paragraph before we start,

e|--------7-------------------7--------------------------------------------|
B|--------9-------------------7--------------------------------------------|
G|--------9-let ring----------8--------------------------------------------|
D|--------9-------------------9--------------------------------------------|
A|--------7-------------------9--------------------------------------------|
E|----------------------------7--------------------------------------------|
  Is it a happy ending? Or a broken heart?

e|-----------------7-7-7--7-7-7----------------------7-7-7--7-7-7----------|
B|-----------------9-9-9--7-7-7----------------------7-7-7--7-7-7----------|
G|-----------------9-9-9--8-8-8----------------------8-8-8--7-7-7----------|
D|-----------------9-9-9--9-9-9----------------------9-9-9--9-9-9----------|
A|-----------------7-7-7--9-9-9----------------------9-9-9--9-9-9----------|
E|------------------------7-7-7----------------------7-7-7--7-7-7----------|
  If I could cheat,              i'd skip to the end.

e|-----------------7-7-7--7-7-7----------------------------7-7-7--7-7-7----|
B|-----------------9-9-9--7-7-7----------------------------7-7-7--7-7-7----|
G|-----------------9-9-9--8-8-8----------------------------8-8-8--7-7-7----|
D|-----------------9-9-9--9-9-9----------------------------9-9-9--9-9-9----|
A|-----------------7-7-7--9-9-9----------------------------9-9-9--9-9-9----|
E|------------------------7-7-7----------------------------7-7-7--7-7-7----|
       And deciiide            if it's worth going through with.
[ Tab from: http://www.guitartabs.cc/tabs/f/futureheads/skip_to_the_end_tab.html ]
e|-----------------7-7-7--7-7-7--------------------------7-7-7--7-7-7------|
B|-----------------9-9-9--7-7-7--------------------------7-7-7--7-7-7------|
G|-----------------9-9-9--8-8-8--------------------------8-8-8--7-7-7------|
D|-----------------9-9-9--9-9-9--------------------------9-9-9--9-9-9------|
A|-----------------7-7-7--9-9-9--------------------------9-9-9--9-9-9------|
E|------------------------7-7-7--------------------------7-7-7--7-7-7------|
  Skip to the last              paragraph before we start

e|--------------------7-7-7--7-7-7-----------------------7-7-7--7-7-7------|
B|--------------------9-9-9--7-7-7-----------------------7-7-7--7-7-7------|
G|--------------------9-9-9--8-8-8-----------------------8-8-8--7-7-7------|
D|--------------------9-9-9--9-9-9-----------------------9-9-9--9-9-9------|
A|--------------------7-7-7--9-9-9-----------------------9-9-9--9-9-9------|
E|---------------------------7-7-7-----------------------7-7-7--7-7-7------|
  Is it a happy ending?            Or a broken heart?

e|--------------------7-7-7--7-7-7-----------------------7-7-7--7-7-7------|
B|--------------------9-9-9--7-7-7-----------------------7-7-7--7-7-7------|
G|--------------------9-9-9--8-8-8-----------------------8-8-8--7-7-7------|
D|--------------------9-9-9--9-9-9-----------------------9-9-9--9-9-9------|
A|--------------------7-7-7--9-9-9-----------------------9-9-9--9-9-9------|
E|---------------------------7-7-7-----------------------7-7-7--7-7-7------|
     Happy Ending?                  Or a broken heart?

e|-7~~~----|
B|-7~~~----|
G|-8~~~----|
D|-9~~~----|
A|-9~~~----|
E|-7~~~----|

CHORUS

e|-7--7-7-7---7-7--------------------------------7-7-----------------------|
B|-9--9-9-9---7-7--------------------------------7-7-----------------------|
G|-9--9-9-9---8-8--------------------------------7-8-----------------------|
D|-9--9-9-9---9-9--------------------------------9-9-----------------------|
A|-7--7-7-7---9-9--------------------------------9-9-----------------------|
E|------------7-7--------------------------------7-7-----------------------|
 (Naa Nanana Na Na) There's nothing to rely on.

e|-7--7-7-7---7-7----------------------------------7-7---------------------|
B|-9--9-9-9---7-7----------------------------------7-7---------------------|
G|-9--9-9-9---8-8----------------------------------7-8---------------------|
D|-9--9-9-9---9-9----------------------------------9-9---------------------|
A|-7--7-7-7---9-9----------------------------------9-9---------------------|
E|------------7-7----------------------------------7-7---------------------|(Naa Nanana 
Na) Come on, let's skip to the end.

e|-7--7-7-7---7-7---------------------------------7-7----------------------|
B|-9--9-9-9---7-7---------------------------------7-7----------------------|
G|-9--9-9-9---8-8---------------------------------7-8----------------------|
D|-9--9-9-9---9-9---------------------------------9-9----------------------|
A|-7--7-7-7---9-9---------------------------------9-9----------------------|
E|------------7-7---------------------------------7-7----------------------|
 (Naa Nanana Na Na) There's nothing to fall back on.

e|-7--7-7-7---7-7----------------------------------7~~~--------------------|
B|-9--9-9-9---7-7----------------------------------7~~~--------------------|
G|-9--9-9-9---8-8----------------------------------7~~~--------------------|
D|-9--9-9-9---9-9----------------------------------9~~~--------------------|
A|-7--7-7-7---9-9----------------------------------9~~~--------------------|
E|------------7-7----------------------------------7~~~--------------------|(Naa Nanana 
Na) Come on, let's skip to the end.

BRIDGE - Sort of rolling riff                                             _
                                                                           |
e|-7--7-7-7--7-7-7--7-7-7----7-7-7-7-7-7-7-7--7---------------------------||
B|-7--7-7-7--7-7-7--7-7-7----7-7-7-7-7-7-7-7--7---------------------------||
G|-8--7-7-7--8-8-8--7-7-7----7-7-7-7-7-7-7-7--7---------------------------||
D|-9--9-9-9--9-9-9--9-9-9----9-9-9-9-9-9-9-9--9---------------------------||
A|-9--9-9-9--9-9-9--9-9-9----9-9-9-9-9-9-9-9--9---------------------------||
E|-7--7-7-7--7-7-7--7-7-7----7-7-7-7-7-7-7-7--7---------------------------||
                                                                           |
e|-7--7-7-7--7-7-7--7-7-7----7-7-7-7-7-7-7-7--7---------------------------||
B|-7--7-7-7--7-7-7--7-7-9----7-7-7-7-7-7-7-7--7---------------------------||
G|-8--7-7-7--8-8-8--7-7-9----7-7-7-7-7-7-7-7--7---------------------------||
D|-9--9-9-9--9-9-9--9-9-9----9-9-9-9-9-9-9-9--9---------------------------||
A|-9--9-9-9--9-9-9--9-9-7----9-9-9-9-9-9-9-9--9---------------------------||
E|-7--7-7-7--7-7-7--7-7------7-7-7-7-7-7-7-7--7---------------------------||
                                                                        x2_|
VERSE2 - SAME AS VERSE1

When i've got teeth, i'll cut to the root,
Then the end is absolute,
When it should make sense, i'll go through the roof,
Then the end has living proof.

then do the second half of VERSE1 again

then CHORUS twice

the INTRO till end.