Futureheads - Decent Days And Nights Chords & Tabs

 

Decent Days And Nights Chords & Tabs

Futureheads Chords & Tabs

Version: 3 Type: Tab 0 ratings
1 star 2 stars 3 stars 4 stars 5 stars
comments

Decent Days And Nights Tab

----------------------------------------------------------------------------
Decent Days and Nights - The Futureheads
----------------------------------------------------------------------------
Tabbed by - HeadShrinkeR
Mail - nosurprisesplz@hotmail.com


MAIN RIFF

e|-------------------------------------------------------|
B|-------------------------------------------------------|
G|---9-9-9-9-9---9-9----9-9-9-9-9------------------------|
D|---9-9-9-9-9---9-9----9-9-9-9-9------------------------|
A|---7-7-7-7-7---7-7----7-7-7-7-7------------------------|
E|-0-----------0-----0---------------etc with breaks-----|

Verse

e|-2------------------0------------------------0---------------------0------|
B|-2------------------0------------------------2---------------------0------|
G|-2------------------1------------------------2---------------------1------|
D|-4------------------2------------------------2---------------------2------|
A|-4------------------2------------------------0---------------------2------|
E|-2------------------0----------------------------------------------0------|
   This is a brand....problem...             a problem without any clues

E|-2-----------------0--------0------------0---------------------------------|
B|-2-----------------0--------2------------0---------------------------------|
G|-2-----------------1--------2------------1---------------------------------|
D|-4-----------------2--------2------------2---------------------------------|
A|-4-----------------2--------0------------2---------------------------------|
E|-2-----------------0---------------------0---------------------------------|
   if you know the clues it's easy to get through

e|----------2------0-------------0------------------0------------------------|
B|----------2------0-------------2------------------0------------------------|
G|----------2------1-------------2------------------1------------------------|
D|----------4------2-------------2------------------2------------------------|
A|----------4------2-------------0------------------2------------------------|
E|----------2------0--------------------------------0------------------------|
    but you look confused and you don't know what to do
[ Tab from: http://www.guitartabs.cc/tabs/f/futureheads/decent_days_and_nights_tab_ver_3.html ]
e|----------2--------0-------------0------------------0---------------------|
B|----------2--------0-------------2------------------0---------------------|
G|----------2--------1-------------2------------------1---------------------|
D|----------4--------2-------------2------------------2---------------------|
A|----------4--------2-------------0------------------2---------------------|
E|----------2--------0--------------------------------0---------------------|
     it's hard to get an answer if you haven't got a clue

e|-4------------------2-------------------------------------------------------|
B|-5------------------4-------------------------------------------------------|
G|-6------------------4-------------------------------------------------------|
D|-6------------------4-------------------------------------------------------|
A|-4------------------2-------------------------------------------------------|
E|----------------------------------------------------------------------------|
   if you work it out tell me what you find


CHORUS

MAIN RIFF, then:

e|-4------------------2------------------------------------------------------|
B|-5------------------4------------------------------------------------------|
G|-6------------------4------------------------------------------------------|
D|-6------------------4------------------------------------------------------|
A|-4------------------2------------------------------------------------------|
E|---------------------------------------------------------------------------|
   We can have a few decent days and nights

etc


BRIDGE

e|-------------------------------------------7-------------------------------|
B|-------------------------------------------7-------------------------------|
G|-------------------------------------------8-------------------------------|
D|-9---9----9--9--9---9---9----9--9--9-------9-------------------------------|
A|-9---9----9--9--9---9---9----9--9--9-------9-------------------------------|
E|-7---7----7--7--7---7---7----7--7--7-------7-------------------------------|
   WE CAN HAVE A FEW, WE CAN HAVE A FEW.... DECENT DAYS AND NIGHTS!
       (palm muted)                          (strum through)


This should be the chords for the whole song, just follow the order of the words with 
chords above and you'll be right!!
Comments