Futureheads - Decent Days And Nights Chords & Tabs

 

Decent Days And Nights Chords & Tabs

Futureheads Chords & Tabs

Version: 1 Type: Tab 0 ratings
1 star 2 stars 3 stars 4 stars 5 stars
comments

Decent Days And Nights Tab

   
----------------------------------------------------------------------------
			     Decent Days and Nights - The Futureheads
----------------------------------------------------------------------------
Tabbed by: David MacDonald
Email: bouncebackability_gravy@hotmail.co.uk

Tuning: standard

ok.. this song is made up of two riffs, both very easy. just listen to the song and
you will know when to put in each riff - the main one or the chorus depending on
whether you have the album version or have just heard the radio version, there is
an extra main riff at the start of the song

i will tab the radio version

MAIN RIFF

e|-----------------------------|
B|-----------------------------|
G|---9-9-9-9-9---9-9-----------|
D|---9-9-9-9-9---9-9-9---------|
A|---7-7-7-7-7---7-7-9---------|
E|-0-----------0-----7---------|

CHORUS
[ Tab from: http://www.guitartabs.cc/tabs/f/futureheads/decent_days_and_nights_tab.html ]
e|--------------------------------------------------------------------------|
B|--------------------------------------------------------------------------|
G|-6-------------------4-----------------------2---------------------1------|
D|-6-------------------4-----------------------2---------------------2------|
A|-4-------------------2-----------------------0---------------------2------|
E|-------------------------------------------------------------------0------|
   This is a brand....problem...             a problem without any clues
E|--------------------------------------------------------------------------|
B|--------------------------------------------------------------------------|
G|-6---------------4----------2-----------1---------------------------------|
D|-6---------------4----------2-----------2---------------------------------|
A|-4---------------2----------0-----------2---------------------------------|
E|----------------------------------------0---------------------------------|
   if you know the clues it's easy to get through
e|--------------------------------------------------------------------------|
B|--------------------------------------------------------------------------|
G|-6------------4----------------2------------------1-----------------------|
D|-6------------4----------------2------------------2-----------------------|
A|-4------------2----------------0------------------2-----------------------|
E|--------------------------------------------------0-----------------------|
   but you look confused and you don't know what to do
e|---------------------------------------------------------------------------|
B|---------------------------------------------------------------------------|
G|-6------------4-------------2--------------------1-------------------------|
D|-6------------4-------------2--------------------2-------------------------|
A|-4------------2-------------0--------------------2-------------------------|
E|-------------------------------------------------0-------------------------|
   it's hard to get an answer if you haven't got a clue
e|--------------------------------------------------------------------------|
B|--------------------------------------------------------------------------|
G|-6-6-6-6-6-6-6-6-6-6-4-4-4-4-4-4-4-4-4-4----------------------------------|
D|-6-6-6-6-6-6-6-6-6-6-4-4-4-4-4-4-4-4-4-4----------------------------------|
A|-4-4-4-4-4-4-4-4-4-4-2-2-2-2-2-2-2-2-2-2----------------------------------|
E|--------------------------------------------------------------------------|
   if you work it out tell me what you find

order of song:

(radio version)

main riff x 4
chorus x 1
main riff x 3
chorus x 1/2
main riff x 8
chorus x 1/2
main riff x 5
bridge x 1 (guitar does nothing) apart from E5
main riff x 2
chorus x 2
main riff x 2

| /  slide up
| \  slide down
| h  hammer-on
| p  pull-off
| ~  vibrato
| +  harmonic
| x  Mute note
========================================================================
Comments