Fused - Last Chance Chords & Tabs

 

Last Chance Chords & Tabs

Fused Chords & Tabs

Version: 1 Type: Tab 1 rating
1 star 2 stars 3 stars 4 stars 5 stars
comments

Last Chance Tab

   
#----------------------------------PLEASE NOTE--------------------------------#
#This file is the author's own work and represents their interpretation of the#
#song. You may only use this file for private study, scholarship, or research.#
#-----------------------------------------------------------------------------#
#-- File created with Instab - http://www.pconline.com/~smcarey/instab.html --#
#-----------------------------------------------------------------------------#

Author/Artist: Fused
Title: --
Album: Fused
Transcribed by: Dan Snaith
Email: --

Hmmm

------------------------------------------------------------------------------
------------------------------------------------------------------------------
------------------------------------------------------------------------------
------5-5-4-4-5-5-7-7-5-5-9-9-10-10-------------------------------------------
--7-7-------------------------------------------------------------------------
------------------------------------------------------------------------------
 E                                                                            

------------------------------------------------------------------------------
------------------------------------------------------------------------------
------------------------------------------------------------------------------
------5-5-4-4-5-5-7-7-5-5-9-9-10-10-------------------------------------------
--5-5-------------------------------------------------------------------------
------------------------------------------------------------------------------
 D                                                                            
[ Tab from: http://www.guitartabs.cc/tabs/f/fused/last_chance_tab.html ]
------------------------------------------------------------------------------
------------------------------------------------------------------------------
------------------------------------------------------------------------------
------5-5-4-4-5-5-7-7-5-5-9-9-10-10-------------------------------------------
--3-3-------------------------------------------------------------------------
------------------------------------------------------------------------------
 C                                                                            

------------------------------------------------------------------------------
------------------------------------------------------------------------------
------------------------------------------------------------------------------
------5-5-4-4-5-5-------5-5-4-4-5-5-------------------------------------------
--2-2-------------------------------------------------------------------------
-------------------5-5--------------------------------------------------------
 B                       Lead                                                 

--7-----5-----3-----2---------------------------------------------------------
--9-----7-----5-----4---------------------------------------------------------
--9-x16-7-x16-5-x16-4---------------------------------------------------------
--9-----7-----5-----4---------------------------------------------------------
--7-----5-----3-----2---------------------------------------------------------
--7-----5-----3-----2---------------------------------------------------------
 (E)   (D)   (C)   (B)   Chords                                               

Comments