Further Seems Forever - Pictures Of Shorelines Chords & Tabs

 

Pictures Of Shorelines Chords & Tabs

Further Seems Forever Chords & Tabs

Version: 1 Type: Tab 0 ratings
1 star 2 stars 3 stars 4 stars 5 stars
comments

Pictures Of Shorelines Tab

   
Artist:Further Seems Forever
Song: Pictures Of Shorelines
Album: The Moon Is Down (tooth and nail records)
Tabbed by:  Kyle DeHoff (muddleheaded@hotvoice.com)

    Tuned low to high: Eb Ab Db Gb Bb Eb

(The strumming is not represented, just a vague place to start from in most
cases.)

INTRO guit 1 INTRO guit 2 
eb|-0-0-0-0-0--------------| -------------| 
Bb|-4-4-4p0-0-5-5-5-5-5-5--| -------------| 
Gb|-6-6-6-6-6-6-6-6-6-6-6--| -------------| 
Db|-6-6-6-6-6-6-6-6-6-6-6--| x2 -xxxxxxx--| pick slide!!! 
Ab|-0-0-0-0-0-4-4-4-4-4-4--| ----xxxxxxx--| 
Eb|------------------------| ----xxxxxxx--| 

BAND COMES IN 
guit 1 
eb|--------------------------------------- -------------------------------| 
Bb|--------------------------------------- -------------------------------| 
Gb|11-11-11-11-11-13-13-13-13-13-13-13-13- 14-14-14-14-14-14-14-14-14-14--| 
Db|--------------------------------------- pause -------------------------|
Ab|-9--9--9--9--9-11-11-11-11-11-11-11-11- 12-12-12-12-12-12-12-12-12-12--|
Eb|--------------------------------------- -------------------------------|
fast strum 

guit 2 
eb|--------------------------------------- -------------------------------| 
Bb|--------------------------------------- -------------------------------| 
Gb|--------------------------------------- -------------------------------| 
Db|-4--4--4--4--4--6--6--6--6--6--6--6--6- 7--7--7--7--7--7--7--7--7--7---| 
Ab|-4--4--4--4--4--6--6--6--6--6--6--6--6- 7--7--7--7--7--7--7--7--7--7---| 
Eb|-2--2--2--2--2--4--4--4--4--4--4--4--4-*5--5--5--5--5--5--5--5--5--5---| 
fast strum                            (pause)


VERSE-A guit 1 "if you insist on pictures of shorelines..." 
eb|--------------------- ----------------------------------------------------| 
Bb|--------------------- ----------------------------------------------------| 
Gb|-6-6-6-6-9-9-9-9-9-9- -11-11-11-11-11-13-13-13-13-13-13-14-14-14-14-14-14-| 
Db|---------------------x2---------------------------------------------------| 
Ab|-4-4-4-4-7-7-7-7-7-7- --9--9--9--9--9-11-11-11-11-11-11-12-12-12-12-12-12-| 
Eb|--------------------- ----------------------------------------------------| 

VERSE-A guit 2 **repeat thru verse B and C** 
eb|----------------------- ---------------------------------------------------|
Bb|----------------------- ---------------------------------------------------|
Gb|----------------------- ---------------------------------------------------|
Db|-6-6-6-6-6-2-2-2-2-2-2-x2---4--4--4--4--6--6--6--6--6--6--7--7--7--7--7--7-|
Ab|-4-4-4-4-4-2-2-2-2-2-2- -4--4--4--4--4--6--6--6--6--6--6--7--7--7--7--7--7-|
Eb|-----------0-0-0-0-0-0- -2--2--2--2--2--4--4--4--4--4--4--5--5--5--5--5--5-|

VERSE-B guit 1 
eb|--------------------------------------------------------------------------- 
Bb|--------------------------------------------------------------------------- 
Gb|-6-6-6-6-6-9-9-9-9-9-9-1-11-11-11-11-13-13-13-13-13-13-14-13-14-16-16-14-16 
Db|--------------------------------------------------------------------------- 
Ab|-4-4-4-4-4-7-7-7-7-7-7----9--9--9--9-11-11-11-11-11-11-12-11-12-14-14-12-14 
Eb|--------------------------------------------------------------------------- 

eb----------------------| 
Bb----------------------| 
Gb-18-18-18-18-18-18-18-| 
Db----------------------| 
Ab-16-16-16-16-16-16-16-| 
Eb----------------------| 

VERSE-C guit 1 
eb|---------------------- ----------------------------------------------------|
Bb|---------------------- ----------------------------------------------------|
Gb|---------------------- -11-11-11-11-11-13-13-13-13-13-13-14-14-14-14-14-14-|
Db|-6-6-6-6-6-2-2-2-2-2--x2---------------------------------------------------|
Ab|-4-4-4-4-4-2-2-2-2-2-- --9--9--9--9--9-11-11-11-11-11-11-12-12-12-12-12-12-|
Eb|-----------0-0-0-0-0-- ----------------------------------------------------|

INTERLUDE guit 1 "early june and the sands still dry..." 
eb|------------------| 
Bb|------------------| 
Gb|------------------| the chord changes are obvious, but not represented here.
Db|-4--7--9--7--4--7-| Hit each many times.
Ab|-4--7--9--7--4--7-|
Eb|-2--5--7--5--2--5-| 
[ Tab from: http://www.guitartabs.cc/tabs/f/further_seems_forever/pictures_of_shorelines_tab.html ]
INTERLUDE guit 2 (1st time) 
eb|-------------------------------------------------------------- 
Bb|-0-------0-------0-------0-------5-4----5-4----5-4----5-4----- 
Gb|---6---6---6---6---6---6---6---6------6------6------6------6-- 
Db|-----6-------6-------6-------6-------6------6------6------6--- cont... 
Ab|-------------------------------------------------------------- 
Eb|-------------------------------------------------------------- 

eb|-----------------------------------------------------------| 
Bb|-7-5----7-5----7-5----7-5----5-4----5-4----5-4-----5-4-----| 
Gb|------6------6------6------6------6------6------6-------6--| 
Db|----6------6------6------6------6------6------6-------6----| 
Ab|-----------------------------------------------------------| 
Eb|-----------------------------------------------------------| 

INTERLUDE guit 2 (2nd time) 
eb|--------------------------------------------------------------| 
Bb|-0-------0-------0-------0-------5-4----7-5----7-5-----9-9-9--| 
Gb|---6---6---6---6---6---6---6---6------6------6------6--6-6-6--| 
Db|-----6-------6-------6-------6------6------6------6-----------| 
Ab|--------------------------------------------------------------| 
Eb|--------------------------------------------------------------| 

**REPEAT VERSE A and B (both guitars)** 
note - both guits pause before playing their last chords of VERSE B 

BREAKDOWN PART 1 guit 1 
eb|------------ 
Bb|------------ 
Gb|-------6b7-- 
Db|-4---7------ let chords ring 
Ab|-4---5------ 4x 
Eb|-2---5------ 

BREAKDOWN PART 1 guit 2 
eb|-------0-----------0-- 
Bb|-2p0---------2p0------ 
Gb|-----2---1h2-----2---- 
Db|---------------------- 4x 
Ab|---------------------- 
Eb|---------------------- 

BREAKDOWN PART 2 guit 1 
eb|-----------------*------------- ------------------ play right thru 3 times  
Bb|-----------------*------------- ------------------ and on the 4th play up 
Gb|-----------------*------------- ------------------ to stars then go... 
Db|-4-4-4-2-2-2-2-2-*-7-7-7-7-7-7- -7-7-7-7--7-7-7-7- 
Ab|-4-4-4-2-2-2-2-2-*-5-5-5-5-5-5- -5-5-5-5--5-5-5-5- 
Eb|-2-2-2-0-0-0-0-0-*------------- ------------------ 

BREAKDOWN PART 2 guit 2 
eb|-------0-------0---------    -------0-------0---------  
Bb|-2p0-----2p0-----2p0-----    -2p0-----2p0-----2p0-2h3- 
Gb|-----2-------2-------2p1- x7 -----2-------2----------- 
Db|-------------------------    ------------------------- 
Ab|-------------------------    ------------------------- 
Eb|-------------------------    ------------------------- 


BREAKDOWN PART 3 guit 1 
eb|-------------- 
Bb|-------------- 
Gb|-------------- chords struck 1x each and hard! 
Db|--7--2--4--2-- 
Ab|--5--2--4--2-- x2 
Eb|--5--0--2--0-- 

BREAKDOWN PART 3 guit 2 
eb|--------------------------------- 
Bb|-------------------------2p0----- 
Gb|-2p1h2-2p1h2-2p1h2-2p1h2-----2p1- 
Db|--------------------------------- x2 
Ab|--------------------------------- 
Eb|--------------------------------- 

END OF BREAKDOWN both guitars 
eb|------------ 
Bb|------------ 
Gb|-2-2-2------ 
Db|-2-2-2---2-- let note ring 
Ab|-0-0-0-x-2-- 
Eb|-2-2-2-x-0-- 

PRE VERSE guit 1 
eb|-0-0-0-- * --------- 
Bb|-4-4-4-- * --------- 
Gb|-6-6-6-- * --------- 
Db|-6-6-6-- * -2-2-2-2- 
Ab|-0-0-0-- * -2-2-2-2- 
Eb|-------- * -0-0-0-0- 

VERSE VARIATION guit 1 
eb|---------------------------------------------------------------| 
Bb|---------------------------------------------------------------| 
Gb|-6-6-6-9-9-9-------9-9--11-11-13-13-13-13-14-14-14-14-14-14-14-| 
Db|-------------6-6-6---------------------------------------------| 
Ab|-4-4-4-7-7-7-4-4-4-7-7--9--9--11-11-11-11-11-11-12-12-12-12-12-| 
Eb|---------------------------------------------------------------| 
fast strum and pause 
VERSE VARIATION guit 2 
eb|-----------------------------------------------------------| 
Bb|-----------------------------------------------------------| 
Gb|-----------------------------------------------------------| 
Db|-6--6--2--2--2--6--6--6--2-2--4--4--4--6--6--6--7--7--7--7-| 
Ab|-4--4--4--2--2--4--4--4--2-2--4--4--4--6--6--6--7--7--7--7-| 
Eb|----------0--0-----------0-0--2--2--2--4--4--4--5--5--5--5-| 
fast strum and pause 

REPEAT VERSE B both guitars with pause before last chords and then hit last
chord once 



I'm sorry for any confusion, this is my first tab.  Any questions,
corrections, or what have you, email to muddleheaded@hotvoice.com
Comments