Further Seems Forever - Monachetti Chords & Tabs

 

Monachetti Chords & Tabs

Further Seems Forever Chords & Tabs

Version: 1 Type: Tab 0 ratings
1 star 2 stars 3 stars 4 stars 5 stars
comments

Monachetti Tab

Monachetti - Further Seems Forever


Tabbed by: Jeff KingsBury
Email: valueshere@hotmail.com

Tuning: Half Step Down (Eb)


Verse - Guitar 1

e|---7---------------------------------------------------------------------| During interlude
B|------5------------------------------------------------------------------| in the middle of
G|---------7--------Played over and over-----------------------------------| the verse, this
D|-------------------------------------------------------------------------| is played by
A|-------------------------------------------------------------------------| itself.
E|-------------------------------------------------------------------------|

Verse - Guitar 2

e|---7---3--3--3------------7--3--5-5-5---|--------------------------------| During second verse,
B|----------------------------------------|--8-7-----8-7-------------------| <--play this in 
G|----------------------------------------|--------------7-----------------| back with the other
D|----------------------------------------|--------------------------------| parts (3rd guitar)
A|----------------------------------------|--------------------------------| 
E|----------------------------------------|--------------------------------|


Pre-Chorus  (played with Intro guitar 1 in background)

e|---3-2-5-3-5-5/7---------------------------------------------------------|
B|-------------------------------------------------------------------------|
G|-------------------------------------------------------------------------|
D|-------------------------------------------------------------------------|
A|-------------------------------------------------------------------------|
E|-------------------------------------------------------------------------|

                                         Second time through chorus, play 
Chorus (x2)                              this in between the other 2 parts
e|--------------------------------------|----------------------------------|
B|--------------------------------------|----------------------------------|
G|--9-9-11-11---12--------8-8--9-9--11--|--9-9-11-11---12------------------|
D|--x-x--x--x----x--------x-x--x-x--x---|--x-x--x--x----x------------------|
A|--7-7--9--9---10--------6-6--7-7--9---|--7-7--9--9---10------------------|
E|--------------------------------------|----------------------------------|



[ Tab from: http://www.guitartabs.cc/tabs/f/further_seems_forever/monachetti_tab.html ]
e|-------------------------------------------------------------------------| At end play
B|-------------------------------------------------------------------------| |-12----
G|--9----17--16--14--12--14--16--14--12--17--16--14------------------------| |-12----
D|--x----x---x---x---x---x---x---x---x---x---x---x-------------------------| |-12-x3- 
A|--7----15--14--12--10--12--14--12--10--15--14--12------------------------| |-10----
E|-------------------------------------------------------------------------| |-------



Thing after second verse   Guitar 1
e|-----------|--------------------|----------------------------------------|
B|-----------|--------------------|----------------------------------------|
G|--11-11-12-|-12-12-12-12-12-----|-12-12-11-------------------------------|
D|--x--x--x--|-x--x--x--x--x---x2-|-x--x--x--------------------------------|
A|--9--9--10-|-10-10-10-10-10-----|-10-10-9--------------------------------|
E|-----------|--------------------|----------------------------------------|



Guitar 2
e|----------10---------10-------10-----------------------------------------|
B|---8---8------8---8-------8----------------------------------------------|
G|-----7----------7-----------7--------------------------------------------|
D|-------------------------------------------------------------------------|
A|-------------------------------------------------------------------------|
E|-------------------------------------------------------------------------|


Every second time (when it sounds like the key is changing) this is played in background.

e|-------------------------------------------------------------------------|
B|-------------------------------------------------------------------------|
G|---7--------7------------------------------------------------------------|
D|-----5--------5-------x2-------------------------------------------------|
A|-------7-7------7--7-----------------------------------------------------|
E|-------------------------------------------------------------------------|



And right before the second chorus starts, play this in the background.
e|-------------------------------------------------------------------------|
B|-------------------------------------------------------------------------|
G|--9-------11------12-------14--------------------------------------------|
D|--x--x12--x--x12--x--x12---x--x12----------------------------------------|
A|--7-------9-------10-------12--------------------------------------------|
E|-------------------------------------------------------------------------|



Short-assed outro
e|-------------------------------------------------------------------------|
B|-------------------------------------------------------------------------|
G|---12-12-12-12-12---12-12-12-12-12---12-12-12-11-------------------------|
D|---x--x--x--x--x----x--x--x--x--x----x--x--x---x-------------------------|
A|---10-10-10-10-10---10-10-10-10-10---10-10-10--9-------------------------|
E|-------------------------------------------------------------------------|
Comments