Further Seems Forever - How To Start A Fire Chords & Tabs

 

How To Start A Fire Chords & Tabs

Further Seems Forever Chords & Tabs

Version: 1 Type: Bass Tab 0 ratings
1 star 2 stars 3 stars 4 stars 5 stars
comments

How To Start A Fire Bass Tab

Further Seems Forever- How To Start A Fire

By:GlssjwTx

Tuning: Half Step Down ( Eb Ab Db Gb )

  INTRO
G|----------------------------------------------------------------------------------------|
D|----------------------------------------------------------------------------------------|
A|-5555555555555555111333000---00331111111111111111-111111--/3-3-1-1-0-11-----------------|
E|--------------------------111---------------------------3~-------------3333333333333333-|

G|----------------------------------------------------------------------------------------|
D|----------------------------------------------------------------------------------------|
A|-5555555555555555111333000---00331111111111111111-111111--/3-3-1-1-0-11-----------------|
E|--------------------------111---------------------------3~-------------3333333333333333-|

  CHORUS
G|---------------------------------------------------------------------------|
D|---------------------------------------------------------------------------|
A|-1-1---1-1---1X1-1---1X11--------------------------------------------------|
E|----3-3---3-3-----3-3------------------------------------------------------|
[ Tab from: http://www.guitartabs.cc/tabs/f/further_seems_forever/how_to_start_a_fire_btab.html ]
  VERSE
G|------|-14/--14/-14X-14/-14/-14X-------------------------------------------|
D|-777--|-14/--14/-14X-14/-14/-14X--REPEAT-----------------------------------|
A|-555--|-12/--12/-12X-12/-12/-12X-------------------------------------------|
E|------|-12/--12/-----12/-12/-----------------------------------------------|

G|---------------------------------------------------------------------------|
D|------------------0-0------------------------------------------------------|
A|-5-5-33-5-55555555---3-3-1-11111111----------------------------------------|
E|---------------------------------------------------------------------------|

  BRIDGE
G|------------------------5-3~---------------------------------------------------|
D|------7~-5~-3~-7-7~---5---3~---------77777777----------------------------------|
A|-1~---5~-3~-1~-5-5~-3-----1~-1-1-1-1-55555555-111333000---00331111111111111111-|
E|-------------------------------------------------------111---------------------|

G|---------------------------------------------------------------------------|
D|---------------------------------------------------------------------------|
A|-111111--/3-3-1-1-0-1-1-111111--3-3-1-0-1----------------1-1-11------------|
E|-------3~---------------------3~---------3333333333333333------3~-tHE END--|

ENJOY!
Comments