Funkadelic - Maggot Brain Chords & Tabs

 

Funkadelic Chords & Tabs

Version: 5 Type: Tab 0 ratings
1 star 2 stars 3 stars 4 stars 5 stars
comments

Maggot Brain Tab

Maggot Brain

this repeats itself in the backround for the whole song.
Play with it on the bassiest pickup and play it with your
thumb.

 No distortion. clean
e|------------------------------------------------------|
B|-------8-----------8-----------7-----------7----------|
G|-----9---9-------9---9-------7---7-------7---7--------|
D|---9-------9---9-------9---7-------7---7-------7------|
A|-7-----------7-----------5-----------5----------------|
E|------------------------------------------------------|

e|-----------------------------------------------------------|
B|-----------------------------------------------------------|
G|--------7-----------7-------------9--------------9---------|
D|------9---9-------9---9--------10---10---------10--10------|
A|----9-------9---9-------9---10---------10---10--------10---|
E|--7-----------7-----------8---------------8----------------|

play this part on bassiest pickup with a pick and a echo effect
a wa pedal and medium distortion.

e|-------12~----12~------------------------------|
B|---15b---------------15-12-15-12---------------|
G|--------------------------------14-12-14-------|
D|-----------------------------------------------|
A|-----------------------------------------------|
E|-----------------------------------------------|

e|-----------------------------------------------|
B|--------------12~---15-12----------------------|
G|-----11-12-14-------------14-12-14~------------|
D|--14-------------------------------------------|
A|-----------------------------------------------|
E|-----------------------------------------------|

e|-----------------------------------------------|
B|-----------------------------------------------|
G|------------14b--14--12----14------------------|
D|---12h14~----------------------14--------------|
A|-----------------------------------------------|
E|-----------------------------------------------|

e|---------------|
B|---------------|
G|---------------|
D|-----------12--|
A|--12-1414------|
E|---------------|

e|------12~~~~-----12----------------------------|
B|--15b---------------15-12-15-12----------------|
G|--------------------------------14-14-12-14~---|
D|-----------------------------------------------|
A|-----------------------------------------------|
E|-----------------------------------------------|

e|-----------------------------------------------|
B|-----------------------------------------------|
G|-r14-r14-r14-12-14~--14b-12--------------------|
D|----------------------------14-----------------|
A|-----------------------------------------------|
E|-----------------------------------------------|

e|-----------------------------------------------|
B|-----------------------------------------------|
G|-------12--14b-12------------------------------|
D|-12h14------------14--12h14p12-----------------|
A|-----------------------------------------------|
E|-----------------------------------------------|

e|-----------------------------------------------|
B|----------------------15-----12--12------------|
G|--14b-12-14-------14b----r14---14--12h14p12----|
D|------------12-14------------------------------|
A|-----------------------------------------------|
E|-----------------------------------------------|
[ Tab from: http://www.guitartabs.cc/tabs/f/funkadelic/maggot_brain_tab_ver_5.html ]
e|-------12~12~12~12~~~--15--12-----------------------------|
B|-12h15------------------------12-15-12--------------------|
G|---------------------------------------14---12-14b-14-----|
D|----------------------------------------------------------|
A|----------------------------------------------------------|
E|----------------------------------------------------------|

e|-----------------------------------------------|
B|-----------------------------------------------|
G|-------12-14-12-14-14b-14-12-14~~--------------|
D|--12-14----------------------------------------|
A|-----------------------------------------------|
E|-----------------------------------------------|

e|-----------------------------------------------|
B|-----------------------------------------------|
G|-------12--14b-14b--14b-14b--14b-14b-----------|
D|-12h14-----------------------------------------|
A|-----------------------------------------------|
E|-----------------------------------------------|

e|-----------------------------------------------|
B|-----15----------------------------------------|
G|--14b--r14-14--12--14b-12----------------------|
D|--------------------------14-------------------|
A|-----------------------------------------------|
E|-----------------------------------------------|

e|-----------------------------------------------|
B|-----------------------------------------------|
G|----------------12-14b-------------------------|
D|----------12-14--------------------------------|
A|-12-14-12--------------------------------------|
E|-----------------------------------------------|

e|--12~12~~-12~----------------------------------|
B|--------------12h15p12-------------------------|
G|-----------------------14-12-------------------|
D|-----------------------------------------------|
A|-----------------------------------------------|
E|-----------------------------------------------|

e|-12~12~~-12------------------------------------|
B|------------12h15p12-----------------12--------|
G|---------------------14-12-14-12-14b----12-----|
D|-----------------------------------------------|
A|-----------------------------------------------|
E|-----------------------------------------------|

e|-----------------------------------------------|
B|-------12-14b16--------12-14b16r14-------------|
G|-12-14-----------12-14-------------------------|
D|-----------------------------------------------|
A|-----------------------------------------------|
E|-----------------------------------------------|

e|-----------------------------------------------|
B|--------12-14b16-------12-14b16r14-------------|
G|--12-14----------12-14-------------------------|
D|-----------------------------------------------|
A|-----------------------------------------------|
E|-----------------------------------------------|

e|------------------------------------------------|
B|--------12--14b-12-----------12--14h16p14-12----|
G|--12-14------------14--12-14-----------------14-|
D|------------------------------------------------|
A|------------------------------------------------|
E|------------------------------------------------|


that was my first tab so be nice.
ah yeah this is all i had time for but i will work
on the tab and try and get more

by miles johnson
u can email suggestions to
mjdisco_3@hotmail.com
Comments