Funkadelic - Maggot Brain Chords & Tabs

 

Maggot Brain Chords & Tabs

Funkadelic Chords & Tabs

Version: 4 Type: Tab 0 ratings
1 star 2 stars 3 stars 4 stars 5 stars
comments

Maggot Brain Tab

   
                           FUNKADELIC
                          MAGGOT BRAIN


STANDARD TUNING
EADGBe


these apreggios are repeated throughout the song:
              Em  D  Bm  C


             Em                       D
------------------------------------------------------|
---------8-----------8-----------7-----------7--------|
-------9---9-------9---9-------7---7-------7---7------|
-----9-------9---9-------9---7-------7---7-------7----|
---7-----------7-----------5-----------5--------------|
------------------------------------------------------|


             Bm                       C
------------------------------------------------------|
--------3-----------3-----------5-----------5---------|
------4---4-------4---4-------5---5-------5---5-------|
----4-------4---4-------4---5-------5---5-------5-----|
--2-----------2-----------3-----------3---------------|
------------------------------------------------------|


             Em                       D
------------------------------------------------------|
---------8-----------8-----------7-----------7--------|
-------9---9-------9---9-------7---7-------7---7------|
-----9-------9---9-------9---7-------7---7-------7----|
---7-----------7-----------5-----------5--------------|
------------------------------------------------------|


             Bm                       C
------------------------------------------------------|
--------3-----------3-----------5-----------5---------|
------4---4-------4---4-------5---5-------5---5-------|
----4-------4---4-------4---5-------5---5-------5-----|
--2-----------2-----------3-----------3---------------|
------------------------------------------------------|


solo
-------------------------------------------------------------------------|
--15b-15v----15b-15-12-15-12----------------------------15---------------|
-----------------------------14-12-14------11-12-14-15b----14b-14-12-14--|
----------------------------------------14-------------------------------|
-------------------------------------------------------------------------|
-------------------------------------------------------------------------|

--------------------------------------------------------------------------|
--------14b----------------------------------15b-15v--15b-15-12-15-12-----|
--12h14-----12h14-12-14-----------------------------------------------14b-|
------------------------12h14------------12-------------------------------|
--------------------------------12h14-14----------------------------------|
--------------------------------------------------------------------------|
[ Tab from: http://www.guitartabs.cc/tabs/f/funkadelic/maggot_brain_tab_ver_4.html ]
---------------------------------------------------------------------------|
---------------------------------------------------------------------------|
-14-12-14---14br14-14br14-14br14-12-14--14b-12----------12-14b-12----------|
-----------------------------------------------14--12-14---------14--12-14-|
---------------------------------------------------------------------------|
---------------------------------------------------------------------------|

--------------------------------------------------15----------------------|
---------15----12-----------12h15-15b-15b-15b-15b----15br15-12-15b-12-----|
--12-14b----14----12h14p12--------------------------------------------14--|
--------------------------------------------------------------------------|
--------------------------------------------------------------------------|
--------------------------------------------------------------------------|

---------------------------------------------------------------------------|
---------------------------------------------------------------------------|
--12-14br14---------12-11-12-14-14br14p12-14-12--14b-14b--14b-14b--14b-14b-|
--------------12-14--------------------------------------------------------|
---------------------------------------------------------------------------|
---------------------------------------------------------------------------|

--------------------------------------------------------------------------|
-----15----------------------------------------------------------15b-15b--|
-14b----14b-12h14-12--14b-12-----------------------12-11-14b-12-----------|
-----------------------------14--------12-11-12-14------------------------|
---------------------------------12-14------------------------------------|
--------------------------------------------------------------------------|

---------------------------------------12-----------------------------------|
-15b-15b-12h15p12--------------15b-15b----15-12----------12-----------------|
------------------14-12-12--0-------------------14p12-14---12--------12-14b-|
---------------------------------------------------------------12h14--------|
----------------------------------------------------------------------------|
----------------------------------------------------------------------------|

---------------------------------------------------------------------------|
---------------------------------------------------------------------------|
-------12-14br14-------12-14b-------12-14br14-------12-14b-12-----------12-|
-12h14-----------12h14--------12h14-----------12h14-----------14--12h14----|
---------------------------------------------------------------------------|
---------------------------------------------------------------------------|

--------------------------------------------------------------------------|
--------------------------------------------------------------------------|
-14p12---------12-14p12----12-14-14p12-----12h14p12-----------------------|
------14-12h14----------14-------------14-----------14-------12-11-12-14--|
-------------------------------------------------------12h14--------------|
--------------------------------------------------------------------------|

----------------------|
----------------------|
--12-11--11-----------|
------------12--------|
---------------14-----|
----------------------|

there it is
peace
Comments