Funkadelic - Maggot Brain Chords & Tabs

 

Funkadelic Chords & Tabs

Version: 2 Type: Tab 0 ratings
1 star 2 stars 3 stars 4 stars 5 stars
comments

Maggot Brain Tab

Tabbed by: C Gamble

Not timed, Listen to song for timing.

                                                 1/2
e|------------------------------------------------------------------|
B|-15b-15bv--15b-12-15-12----------------------------15-------------|
G|-----------------------14-12-14-------11-12-14-15b----14b-14-12-14|
D|-----------------------------------14-----------------------------|
A|------------------------------------------------------------------|
E|------------------------------------------------------------------|

e|------------------------------------------------------------------|
B|-------14b------------------------------15b-15v---15b--15-12-15-12|
G|-12h14-----12h14-12-14--------------------------------------------|
D|-----------------------12h14-------12-----------------------------|
A|-----------------------------12h14--------------------------------|
E|------------------------------------------------------------------|

e|------------------------------------------------------------------|
B|------------------------------------------------------------------|
G|-14b--14-12-14---14br-14br-14br--12-14v--14b-12-----------12-14b--|
D|------------------------------------------------14--12h14---------|
A|------------------------------------------------------------------|
E|------------------------------------------------------------------|

e|------------------------------------------------------------------|
B|-------------------------------------15----12---------------------|
G|-12--------------14b-12-14----12-14b----14----12-14--12h14p12-----|
D|----14--12-14-12-----------14-------------------------------------|
A|------------------------------------------------------------------|
E|------------------------------------------------------------------|
          wah
e|------------------------15----------------------------------------|
B|-12h15--15b-15b-15b-15b----15br---12-15b-12-----------------------|
G|--------------------------------------------14---12--14br---------|
D|----------------------------------------------------------12h14---|
A|------------------------------------------------------------------|
E|------------------------------------------------------------------|
[ Tab from: http://www.guitartabs.cc/tabs/f/funkadelic/maggot_brain_tab_ver_2.html ]
e|------------------------------------------------------------------|
B|----------------------------------------------------------------15|
G|-------------12------------------14b-14b--14b-14b--14b-14b--14b---|
D|-12-11-12-14----14-12-14---12h14----------------------------------|
A|------------------------------------------------------------------|
E|------------------------------------------------------------------|

e|------------------------------------------------------------------|
B|-----------------------------------------------------------15b-15b|
G|-14b---12h14-12-14b-12----------------------12-11-14v---12--------|
D|-----------------------14-------12-11-12-14-----------------------|
A|--------------------------12-14-----------------------------------|
E|------------------------------------------------------------------|

e|----------------------------------------12------------------------|
B|-15b-15b--12h15p12------------15b--15bv----15-12-----------12-----|
G|-------------------14-12-12-0--------------------14p12--14----12--|
D|------------------------------------------------------------------|
A|------------------------------------------------------------------|
E|------------------------------------------------------------------|
                2:36
e|------------------------------------------------------------------|
B|------------------------------------------------------------------|
G|-------12-14b-------12-14br-------12-14b-------12-14br-------12-14b
D|-12h14--------12h14---------12h14--------12h14---------12h14------|
A|------------------------------------------------------------------|
E|------------------------------------------------------------------|

e|------------------------------------------------------------------|
B|------------------------------------------------------------------|
G|-12-----------12-14p12-----------12-14p12----12-14-14p12----------|
D|----14--12h14----------14--12h14----------14-------------14-------|
A|------------------------------------------------------------------|
E|------------------------------------------------------------------|

e|------------------------------------------------------------------|
B|------------------------------------------------------------------|
G|-12h14p12-----------------------12\11-11--------------------------|
D|----------14--------12-11/12-14----------12-----------------------|
A|--------------12h14-------------------------14--------------------|
E|------------------------------------------------------------------|


And that is all I have tabbed so far.  I usually just do some improvising
on the e pentatonic scale for the rest of the song.
Email:  crg1000@mail.com

ENJOY and GOOD LUCK!!!!!!!!!
Comments