Funkadelic - Hit It And Quit It Chords & Tabs

 

Funkadelic Chords & Tabs

Version: 2 Type: Tab 0 ratings
1 star 2 stars 3 stars 4 stars 5 stars
comments

Hit It And Quit It Tab

   
                             FUNKADELIC
                         HIT IT AND QUIT IT

this is a song off of their album "Maggot Brain"


standard tuning

Main Riff (Clean, Reverb, Wah)
---------------------------|
---------------------------|
---------------------------|
---------2-5-2----2p0------|
-----2-5-------5-----------|
----------------------3-0--|

------------------------------|
------------------------------|
--------------2---------------|
--------2-5-2---5p4p2p0-------|
----2-5-----------------------|
---------------------3-0------|

-----------------------------------------|
-----------------------------------------|
-----------------------------------------|
--------2-5-----2-5-----2-5-2---2p0------|
----2-5-----2-5-----2-5-------5----------|
------------------------------------3-0--|
[ Tab from: http://www.guitartabs.cc/tabs/f/funkadelic/hit_it_and_quit_it_tab_ver_2.html ]
Chords (Distortion, Chorus, Reverb, Wah)
 A     C    D
-0-----3----5---|
-2-----5----7---|
-2-----5----7---|
-2-----5----7---|
-0-----3----5---|
----------------|


Keep playing the Main Riff, switch it up and play it an octave higher if you don't have 
keyboard player:
-------------------------|
--------5-8-5---5p3------|
----4-7-------7-----0----|
----------------------2--|
-------------------------|
-------------------------|

--------------5---------------|
--------5-8-5---8p7p5p3-------|
----4-7-----------------0-----|
--------------------------2---|
------------------------------|
------------------------------|

------------------------------------------|
--------5-8-----5-8-----5-8-5---5p3-------|
----4-7-----4-7-----4-7-------7-----0-----|
--------------------------------------2---|
------------------------------------------|
------------------------------------------|

thats it
peace
Comments