Funk Traveler - Stoopid Mop Chords & Tabs

 

Stoopid Mop Chords & Tabs

Funk Traveler Chords & Tabs

Version: 1 Type: Tab 0 ratings
1 star 2 stars 3 stars 4 stars 5 stars
comments

Stoopid Mop Tab

   

Artist- The Zepookoo Brotherhood
Song-Stoopid Mop
Album- Wiggaz With Attitudez

        
          Intro/Verse Riff

e|---------------------------------|
b|---------------------------------|
g|---------------------------------|
d|--------------------5---------5--|
a|----------7-5-7--7----7--5-7-----|
E|-12/----0------------------------|

e|---------------------------------|
b|---------------------------------|
g|---------------------------------|
d|----------------------------2----|
a|----------7-5-7-5-----------2----|
E|-12/----0---------x6-x5-x3-x0----|

[ Tab from: http://www.guitartabs.cc/tabs/f/funk_traveler/stoopid_mop_tab.html ]
         Chorus
   E     G     D      E
e|---------------------------------|
b|---------------------------------|
g|-------------7-------------------|
d|-2-----5-----7------2------------|
a|-2-----5-----5------2------------|
E|-0-----3------------0------------|

   E  G  D  A  C  G  A   
e|---------------------------------|
b|---------------------------------|
g|-------7--2--5-------------------|
d|-2--5--7--2--5--5--7-------------|
a|-2--5--5--0--3--5--7-------------|
E|-0--3-----------3--5-------------|

           

      Outro
   E    A   C   G
e|-12---5---8---3---|      Play that a bunch o timez
b|-12---5---8---3---|     
Comments