Funeral For A Friend - Streetcar Chords & Tabs

 

Streetcar Chords & Tabs

Funeral For A Friend Chords & Tabs

Version: 5 Type: Tab 0 ratings
1 star 2 stars 3 stars 4 stars 5 stars
comments

Streetcar Tab

   
Song: Streetcar
Band: Funeral for a Friend
Tuning: Drop D (e B G D A D)
Tabber: *'-'*

I think this tab is accurate, I checked it against a tab in Total Guitar, and I had a
few bits wrong. But in the eyes of fairness, I will submit my original version.

NOTE: PMs are below tab

Intro:

e|--------------|--------------------------------------------------|
B|--------------|--------------------------------------------------|
G|--------------|--------------------------------------------------|
D|-7--/6-----7--|--------------------------------------------------|
A|-7-/-6-----7--|-7--7--7-7-7--7-7-7--7-7-7--7-7-7--7-7-7--7-----7-|
D|-5/--4--0--5--|-5--5--5-5-5--5-5-5--5-5-5--5-5-5--5-5-5--5--5--5-|

PM:       .          .  . . .  . . .  . . .  . . .  . .       .

e|---------------------------------------------------|
B|---------------------------------------------------|
G|---------------------------------------------------|
D|---------------------------------------------------|
A|-7--7--7-7-7--7-7-7--7-7-7--7-7-7--7-7-7--7-----0--|
D|-5--5--5-5-5--5-5-5--5-5-5--5-5-5--5-5-5--5--5--0--|

PM:   .  . . .  . . .  . . .  . . .  . .       .

e|------------------------------------------------------------|
B|------------------------------------------------------------|
G|------------------------------------------------------------|
D|------------------------------------------------------------|
A|-2--2--2-2-2--2-2-2--2-2-2--2--2--2---2--2--2---2-------2---|
D|-0--0--0-0-0--0-0-0--0-0-0--0--0--0---0--0--0---0---0---0---|

PM:   .  . . .  . . .  . . .  .  .  .   .  .          .   

e|-------------------------------|
B|-------------------------------|
G|-------------------------------|
D|----------------7--/6----------|
A|-9------8-------7-/-6-------7--|
E|----0-------0---5/--4---0---5--|

PM:   .       .           .

Verse*:

e|---------------------------------------|
B|---6---6---4---6---4---6---4-h-7---6---|
G|---6---6---4---6---4---6---4-------6---|
D|---------------------------------------|
A|---------------------------------------|
D|---------------------------------------|

e|---------------------------------------|
B|---6---4---6---4---6---4---6--7--7-----|
G|---6---4---6---4---6---4---6--7--7-----|
D|---------------------------------------|
A|---------------------------------------|
D|---------------------------------------|
[ Tab from: http://www.guitartabs.cc/tabs/f/funeral_for_a_friend/streetcar_tab_ver_5.html ]
e|---------------------------------------|
B|---7---6---7---6---7---6---7---9---7---|
G|---7---6---7---6---7---6---7---9---7---|
D|---------------------------------------|
A|---------------------------------------|
D|---------------------------------------|

e|---------------------------------------|
B|---7---6---7---6---7---6---7---9---6---|
G|---7---6---7---6---7---6---7---9---6---|
D|---------------------------------------|
A|---------------------------------------|
E|---------------------------------------|

Chorus":

e|------------------------------------------------------------------------|
B|-15---10---8---7---8---7---8---7---15---10---8---7---8---7---8---7---20-|
G|------------------------------------------------------------------------|
D|------------------------------------------------------------------------|
A|------------------------------------------------------------------------|
D|------------------------------------------------------------------------|

e|--------------------------------------------------------------------------|
B|--10-8-7-19--10-8-7-17--10-8-7-15-10-8-7-20---10-8-7-19--10-8-7-17-10-8-7-|
G|--------------------------------------------------------------------------|
D|--------------------------------------------------------------------------|
A|--------------------------------------------------------------------------|
D|--------------------------------------------------------------------------|

e|----------------------|
B|--10-8-7-15-10-8-7-15-|
G|----------------------|
D|----------------------|
A|----------------------|
D|----------------------|

Bridge:

e|-9-9-9-9-9-9-10-10-10-10--12-12-12-12-10-10-10-10-12--12-|
B|-9-9-9-9-9-9-10-10-10-10--12-12-12-12-10-10-10-10-12--12-|
G|---------------------------------------------------------|
D|---------------------------------------------------------|
A|---------------------------------------------------------|
D|---------------------------------------------------------|

e|--10--10--10-10---10--10-12-10-9-----|
B|--10--10--10-10---10--10---------10--|
G|-------------------------------------|
D|-------------------------------------|
A|-------------------------------------|
D|-------------------------------------|


Thats It, the bridge repeats a few times with minor variations. Work them out. So I
hope you like this. Easily my best tab so far.

Cheers!

Notes:

* Short Sharp Notes

" All Hammers & Pulls. (i didnt bother puting ps & hs coz it made it hard to read)








Comments