Funeral For A Friend - Streetcar Chords & Tabs

 

Streetcar Chords & Tabs

Funeral For A Friend Chords & Tabs

Version: 1 Type: Bass Tab

Streetcar Bass Tab

---------------------------------------------------|
---------------------------------------------------|
---------------------------------------------------|
-5-5--5-5-5-5-5-5-5--5-5--5-5-5-5-5-5-5-0--0-0-0-0-|

-----------------------------------------------------------------------|
-----------------------------------------------------------------------|
-----------------------------------------------------------------------|
0-0-0--0-0-0-0-0-0-0-0--0----------------------------------------------| x2
chorus
-----------------------------------------------------------------------|
---------------4-4-4-4-2-2-2-2--4-4---------------2-2-2-2-4-4-4-4-2-2--|
-2--2-2-2-2-2-2--------------------0--0-0-0-0-0------------------------|
---------------------------------------------------------------------0-|
[ Tab from: http://www.guitartabs.cc/tabs/f/funeral_for_a_friend/streetcar_btab.html ]
---------------------------------------------------------------------|back to verse
---------------------------------------------------------------------|
-------------------------------------------------------------------2-|
-0--0-0-0-0-0-0-0-0-0-0-0-0-0-0-5--5-5-5-5-5-5-5-5-5-5-5-5-5-5-5-5---| Threw chorus
THE BASS SOLO!
----------------------------------------------------------------------------------|
----------------------------------------------------------------------------------|
---------------------------------0-0-0-0-0-0-0-0x2--------------------------------|
-0-0-0-0-0-0-0-0-0-0-0-0-0-0-0-0------------------5-5-5-5-5-5-5-5-5-5-5-5-5-5-5-5-|
----------------------------------------------------------------------------------|
----------------------------------------------------------------------------------|
--------------------------------2-2-2-2-2-2-2-2-2-2-2-2-2-2-2-2-------------------|
-4-4-4-4-4-4-4-4-4-4-4-4/7-7-7-7--------------------------------------------------|


-----------------------------------------------------------------------------|
-----------------------------------------------------------------------------|
-0-0-0-0-0-0-0-0-0-0-0-0-0-0-0-0---------------------------------------------|
--------------------------------5-5-5-5-5-5-5-5-5-5-5-5-5-5-5-5-4-4-4-4-4-4--|

1st time round
   _________________
4-4-|4-4-4-4-7-7-7-7 then do this again but do 2nd time round instead
   2nd time round
-----------------------------------------------------------------------|
-----------------------------------------------------------------------|
----------------2-2-2-2-2-2-0-0-0-0-0-0-0-------------------------0-2--|
-4-4-4-4-4-4-4-4-------------------------5-etc-4-----------------------|work this bit out yer self