Funeral For A Friend - She Drove Me To Daytime Television Chords & Tabs

 

She Drove Me To Daytime Television Chords & Tabs

Funeral For A Friend Chords & Tabs

Version: 3 Type: Tab 0 ratings
1 star 2 stars 3 stars 4 stars 5 stars
comments

She Drove Me To Daytime Television Tab

   
==SHE DROVE ME TO DAYTIME TV==
   By Funeral For A Friend

Tabbed by : Joolz (jeff_hardy35@hotmail.com)

Easily one of the best songs on their album. I still
only listen to it mainly because of the outro.

(Listen to the song for the rhythm)

Key - 

h  : Hammer-On
p  : Pull-Off
PM : Palm Mute
*  : Dead Note
x  : Percussive Note
/  : Slide Up
\  : Slide Down

Tuning - 1/2 tone down dropped (Dropped Db)

BPM - 155 (approx)

Intro - Rhythm (0:02)

Eb :----------------|----------------|----------------|----------------|
Bb :----------------|----------------|----------------|----------------|
Gb :----------------|----------------|----------------|----------------|
Db :----------------|----------------|----------------|----------------|
Ab :5-5-5-5-*---5-5-|5-5-*---5-5-5-5-|5-5-5-5-*---5-5-|5-5-*---5-5-5-5-|
Db :5-5-5-5-*---5-5-|5-5-*---5-5-5-5-|5-5-5-5-*---5-5-|5-5-*---5-5-5-5-|

Eb :----------------|----------------|----------------|----------------|
Bb :----------------|----------------|----------------|----------------|
Gb :----------------|----------------|----------------|----------------|
Db :----------------|----------------|----------------|----------------|
Ab :0-----0-*---0---|--0-0---0-0-0-0-|0-----0-*---0---|--0-0---0-0-0-0-|
Db :0-----0-*---0---|--0-0---0-0-0-0-|0-----0-*---0---|--0-0---0-0-0-0-|

Eb :----------------|----------------|----------------|----------------|
Bb :----------------|----------------|----------------|----------------|
Gb :----------------|----------------|----------------|----------------|
Db :----------------|----------------|----------------|----------------|
Ab :5-5-5-5-*---5-5-|5-5-*---5-5-5-5-|5-5-5-5-*---5-5-|5-5-*---5-5-5-5-|
Db :5-5-5-5-*---5-5-|5-5-*---5-5-5-5-|5-5-5-5-*---5-5-|5-5-*---5-5-5-5-|

Eb :----------------|----------------|----------------|----------------|
Bb :----------------|----------------|----------------|----------------|
Gb :----------------|----------------|----------------|----------------|
Db :----------------|----------------|----------------|----------------|
Ab :9-----9-9---5---|--5-5---5-5-5-5-|9-----9-9---5---|--5-5-*---------|
Db :9-----9-9---5---|--5-5---5-5-5-5-|9-----9-9---5---|--5-5-*---------|


Intro - Lead (0:02)

 
Eb :----------------------|------------------------|
Bb :----------------------|------------------------|
Gb :11-11-11-11-*---11-11-|11-11-*---11-/12-12-/14-|
Db :----------------------|------------------------|
Ab :-9--9--9--9-*----9--9-|-9--9-*----9-/10-10-/12-|
Db :----------------------|------------------------|

Eb :----------------------|--------------------|-------------------|
Bb :----------------------|--------------------|-------------------|
Gb :11-11-11-11-*---11-11-|11-11-*---11-\9-x-x-|9-----/11-----\7---|
Db :----------------------|--------------------|-------------------|
Ab :-9--9--9--9-*----9--9-|-9--9-*----9-\7-x-x-|7-----/-9-----\5---|
Db :----------------------|--------------------|-------------------|

Eb :-----------------|-------------------|-----------------|
Bb :-----------------|-------------------|-----------------|
Gb :--7-7---7-/9-9-9-|9-----/11-----\7---|--7-7---7-\6-6-6-|
Db :-----------------|-------------------|-----------------|
Ab :--5-5---5-/7-7-7-|7-----/-9-----\5---|--5-5---5-\4-4-4-|
Db :-----------------|-------------------|-----------------|

Eb :----------------------|------------------------|
Bb :----------------------|------------------------|
Gb :11-11-11-11-*---11-11-|11-11-*---11-/12-12-/14-|
Db :----------------------|------------------------|
Ab :-9--9--9--9-*----9--9-|-9--9-*----9-/10-10-/12-|
Db :----------------------|------------------------|

Eb :----------------------|--------------------|-------------------|
Bb :----------------------|--------------------|-------------------|
Gb :11-11-11-11-*---11-11-|11-11-*---11-\9-x-x-|9-----9-9-/11-\7---|
Db :----------------------|--------------------|-------------------|
Ab :-9--9--9--9-*----9--9-|-9--9-*----9-\7-x-x-|7-----7-7-/-9-\5---|
Db :----------------------|--------------------|-------------------|

Eb :------------------|------------------|-------------------|
Bb :------------------|------------------|-------------------|
Gb :--7-7---7-7-\6-\6-|7-----7-7-/9-\6---|--6-6-*-6-/7-\6-/7-|
Db :------------------|------------------|-------------------|
Ab :--5-5---5-5-\4-\4-|5-----5-5-/7-\4---|--4-4-*-4-/5-\4-/5-|
Db :------------------|------------------|-------------------|


Verse - Rhythm (0:26) - Played throughout the verse
 
    
Eb :-----------------|-----------------|------------------|
Bb :-----------------|-----------------|------------------|
Gb :--------7-/9-----|--------7-/9-9-9-|--------9-/11-----|
Db :-----------------|-----------------|------------------|
Ab :5-5-5-5-5-/7-5-5-|5-5-5-5-5-/7-7-7-|9-9-9-9-7-/-9-9-9-|
Db :5-5-5-5------5-5-|5-5-5-5----------|9-9-9-9-------9-9-|

PM (-------)    (------------)         (-------)     (---)

Eb :--------------------|-----------------|-----------------|
Bb :--------------------|-----------------|-----------------|
Gb :--------9-/11-\9-\7-|--------7-/9-----|--------7-/9-9-9-|
Db :--------------------|-----------------|-----------------|
Ab :9-9-9-9-7-/-9-\7-\5-|5-5-5-5-5-/7-5-5-|5-5-5-5-5-/7-7-7-|
Db :9-9-9-9-------------|5-5-5-5------5-5-|5-5-5-5----------|

PM (-------)            (-------)    (------------)

Eb :------------------|--------------------|
Bb :------------------|--------------------|
Gb :--------9-/11-----|--------9-/11-\9-\7-|
Db :------------------|--------------------|
Ab :9-9-9-9-7-/-9-9-9-|9-9-9-9-7-/-9-\7-\5-|
Db :9-9-9-9-------9-9-|9-9-9-9-------------|

PM (-------)     (------------) 


Verse - Lead (0:26) - Played throughout the verse


Eb :---------10-------|---------10-------|---------10-------|
Bb :----10------------|----10------------|----10------------|
Gb :6-7----7----7-6-7-|7-7----7----7-6-7-|6-7----7----7-6-7-|
Db :------------------|------------------|------------------|
Ab :------------------|------------------|------------------|
Db :------------------|------------------|------------------|
   
PM (--------)  (---------------)  (---------------)  (-----) 

Eb :---------10---9---|
Bb :----10------------|
Gb :7-7----7----7---7-|
Db :------------------|
Ab :------------------|
Db :------------------|

PM (--------)  (-) (-)


Chorus - Rhythm (0:51)


Eb :----------------|------------------|----------------|
Bb :----------------|------------------|----------------|
Gb :----------------|------------------|----------------|
Db :----------------|------------------|----------------|
Ab :5-5-5-5-5-5-5-5-|5-5-5-5-5-/7-7-/9-|9-9-9-9-9-9-9-9-|
Db :5-5-5-5-5-5-5-5-|5-5-5-5-5-/7-7-/9-|9-9-9-9-9-9-9-9-|
[ Tab from: http://www.guitartabs.cc/tabs/f/funeral_for_a_friend/she_drove_me_to_daytime_television_tab_ver_3.html ]
Eb :-----------------|----------------|------------------|
Bb :-----------------|----------------|------------------|
Gb :-----------------|----------------|------------------|
Db :-----------------|----------------|------------------|
Ab :9-\7-7-7-7-7-7-7-|5-5-5-5-5-5-5-5-|5-5-5-5-5-/7-7-/9-|
Db :9-\7-7-7-7-7-7-7-|5-5-5-5-5-5-5-5-|5-5-5-5-5-/7-7-/9-|

Eb :----------------|-----------------|
Bb :----------------|-----------------|
Gb :----------------|-----------------|
Db :----------------|-----------------|
Ab :9-9-9-9-9-9-9-9-|9-\7-7-7-7-7-7-7-|
Db :9-9-9-9-9-9-9-9-|9-\7-7-7-7-7-7-7-|


Chorus - Lead (0:51) - Played throughout the chorus


Eb :----------9---------|----------9------10-|
Bb :-----10-------------|-----10-----10------|
Gb :6-h7----7---7-p6-h7-|6-h7----7------7----|
Db :--------------------|--------------------|
Ab :--------------------|--------------------|
Db :--------------------|--------------------|


Chorus Pt.2 - Rhythm (1:03)


Eb :----------------|------------------|----------------|
Bb :----------------|------------------|----------------|
Gb :----------------|------------------|----------------|
Db :----------------|------------------|----------------|
Ab :5-5-5-5-5-5-5-5-|5-5-5-5-5-/7-7-/9-|9-9-9-9-9-9-9-9-|
Db :5-5-5-5-5-5-5-5-|5-5-5-5-5-/7-7-/9-|9-9-9-9-9-9-9-9-|

PM (------------------------)          (---------------)

Eb :-----------------|----------------|------------------|
Bb :-----------------|----------------|------------------|
Gb :-----------------|----------------|------------------|
Db :-----------------|----------------|------------------|
Ab :9-\7-7-7-7-7-7-7-|5-5-5-5-5-5-5-5-|5-5-5-5-5-/7-7-/9-|
Db :9-\7-7-7-7-7-7-7-|5-5-5-5-5-5-5-5-|5-5-5-5-5-/7-7-/9-|

PM      (-------------------------------------)

Eb :----------------|-----------------|
Bb :----------------|-----------------|
Gb :----------------|-----------------|
Db :----------------|-----------------|
Ab :9-9-9-9-9-9-9-9-|9-\7-7-7-7-7-7-7-|
Db :9-9-9-9-9-9-9-9-|9-\7-7-7-7-7-7-7-|

PM (---------------)     (---)


Chorus Pt.2 - Lead (1:03) - Played throughout chorus pt.2


Eb :---------9-------|---------9------10-|
Bb :----10-----------|----10-----10------|
Gb :6-7----7---7-6-7-|6-7----7------7----|
Db :-----------------|-------------------|
Ab :-----------------|-------------------|
Db :-----------------|-------------------|

PM (---)  (-) (----------)  (-)    (-)


Verse 2 - Played exaclty like Verse 1, but the rhythm stops, and rests the whole
          of the first bar. The lead doesn't

Bridge 2 - As Bridge 1

Chorus 2 - As Chorus 1 & pt.2


Outro

This is my favourite part of the song. However there is a 3rd
guitar, which will be shown. The outro is in a halftime feel.


Outro - Rhythm (2:28) - Played 4 times


Eb :-----------------|----------------|-------------------|
Bb :-----------------|----------------|-------------------|
Gb :-----------------|----------------|-------------------|
Db :-----------------|----------------|-------------------|
Ab :-----------------|----------------|-------------------|
Db :5-\4-0-------0---|----0---0---0-0-|9~-----9-9-9\-5~---|

Eb :----------------|
Bb :----------------|
Gb :----------------|
Db :----------------|
Ab :----------------|
Db :--5-5---5---5-5-|


Outro - Lead (2:34) - Played 3 times, Clean w/ flange


Eb :12-----------------|----------------|12------------------|
Bb :---15--------------|----------------|---15---------------|
Gb :------14-----------|----------------|------14------------|
Db :-------------------|----------------|---------------12---|
Ab :-------------------|----------------|--------------------|
Db :-------------------|----------------|--------------------|

Eb :----------------|
Bb :----------------|
Gb :----------------|  (Let Notes Ring)
Db :----------------|
Ab :----------------|
Db :----------------|


Outro - 3rd Guitar - Played twice (last 8 bars) for the build up

On the last bar, gradually strum without palm mute, getting louder

Eb :----------------|----------------|----------------|----------------|
Bb :----------------|----------------|----------------|----------------|
Gb :----------------|----------------|----------------|----------------|
Db :7-7-7-7-7-7-7-7-|7-7-7-7-7-7-7-7-|7-7-7-7-7-7-7-7-|7-7-7-7-7-7-7-7-|
Ab :5-5-5-5-5-5-5-5-|5-5-5-5-5-5-5-5-|5-5-5-5-5-5-5-5-|5-5-5-5-5-5-5-5-|
Db :----------------|----------------|----------------|----------------|

PM (------------------------------------------------------------------)
 


Outro Pt.2 - Rhythm (2:54) - Played 4 times


Eb :-----------------|----------------|----------------|----------------|
Bb :-----------------|----------------|----------------|----------------|
Gb :-----------------|----------------|----------------|----------------|
Db :-------------0---|--0-0---0---0-0-|9-----9-9-9-5---|--5-5---5---5-5-|
Ab :5-\4-0---0---0---|--0-0---0---0-0-|9-----9-9-9-5---|--5-5---5---5-5-|
Db :5-\4-0---0---0---|--0-0---0---0-0-|9-----9-9-9-5---|--5-5---5---5-5-|

PM (---------)                    "Ooh on and on and on and on and on.."


Outro Pt.2 - Lead (2:54) - Played 4 times


Eb :------10----12-p10----10-|------10----12-p10----10-|
Bb :---10----10--------10----|---10----10--------------|
Gb :-------------------------|-------------------------|
Db :12-----------------------|12-----------------12----|
Ab :-------------------------|-------------------------|
Db :-------------------------|-------------------------|

Eb :------10----12-p10----10-|------10----12-p10----10-|
Bb :---10----10--------10----|---10----10--------------|
Gb :-------------------------|-------------------------|
Db :12-----------------------|12-----------------12----|
Ab :-------------------------|-------------------------|
Db :-------------------------|-------------------------|


Outro Pt.3 - Rhythm (3:19) - Played 4 times


Eb :----------------|----------------|
Bb :----------------|----------------|
Gb :----------------|----------------|
Db :--------0-------|--------0-------|
Ab :5-4-0---0-------|5-4-0---0-------|
Db :5-4-0---0-------|5-4-0---0-------|

PM (-----)          (-----)


Outro Pt.3 - Lead (3:19) - Played 4 times


Eb :------10----12-p10----10-|------10----12-p10----10-|
Bb :---10----10--------10----|---10----10--------------|
Gb :-------------------------|-------------------------|
Db :12-----------------------|12-----------------12----|
Ab :-------------------------|-------------------------|
Db :-------------------------|-------------------------|


Outro Pt.3 - 3rd Guitar - Played twice


Eb :----------------|----------------|----------------|----------------|
Bb :----------------|----------------|----------------|----------------|
Gb :7-7-7-7-7-7-7-7-|7-7-7-7-7-7-7-9-|7-7-7-7-7-7-7-7-|7-7-7-7-7-7-7-7-|
Db :----------------|----------------|----------------|----------------|
Ab :5-5-5-5-5-5-5-5-|5-5-5-5-5-5-5-7-|5-5-5-5-5-5-5-5-|5-5-5-5-5-5-5-5-|
Db :----------------|----------------|----------------|----------------|


Half way through bar 8, cut out to finish. Listen to the song for the ending

Hope the tab helped, have fun playin!

~Joolz
Comments