Funeral For A Friend - Roses For The Dead Chords & Tabs

 

Roses For The Dead Chords & Tabs

Funeral For A Friend Chords & Tabs

Version: 7 Type: Tab 0 ratings
1 star 2 stars 3 stars 4 stars 5 stars
comments

Roses For The Dead Tab

   
-------------------------------------------------------------------------------
		Roses for the Dead - Funeral for a Friend
----------------------------------------------------------------------------
This song is tapped with both hands so t=tap
and /=slide x=mute
Tabbed by:macey
Email:

Tuning:eb Bb Gb Db Ab eb
verse/intro
eb|--------------------------------------------------------------------------|
Bb|--------------------------------------------------------------------------|
Gb|----------------------------------------------16t--------------------------|
Db|-----17t--------16t------------------------------------------16/17--------|
Ab|-7t-------7t-----------7t------17t-----7t------------7t-------------------|
Eb|--------------------------------------------------------------------------|                            X2
           
eb|--------------------------------------------------------------------------|
Bb|--------------------------------------------------------------------------|
Gb|----------------------------------------------16t--------------------------|
Db|-----17t--------16t------------------------------------------16/17--------|
Ab|---------------------------------17t--------------------------------------|
Eb|-8t--------8t----------8t---------------8t------------8t------------------|                               X1
[ Tab from: http://www.guitartabs.cc/tabs/f/funeral_for_a_friend/roses_for_the_dead_tab_ver_7.html ]
eb|--------------------------------------------------------------------------|
Bb|--------------------------------------------------------------------------|
Gb|----------------------------------------------16t--------------------------|
Db|-----17t--------16t------------------------------------------16/17--------|
Ab|---------------------------------17t--------------------------------------|
Eb|-10t------10t----------10t---------------10t-----------10t----------------|                                X1
pre chourus
eb|--------------------------------------------------------------------------|
Bb|--------------------------------------------------------------------------|
Gb|-12--12--12----11--11-11---12--12--12-----14--14--14-----19--19--19-------|
Db|--x---x---x-----x--x--x----x---x---x------x---x---x------x----x---x-------|
Ab|-10--10--10-----9--9--9----10--10--10-----12--12--12-----17--17--17-------|
Eb|--------------------------------------------------------------------------|

eb|--------------------------------------------------------------------------|
Bb|-17--17--17-----16--16--16----14--14--14----------------------------------|
Gb|-x---x---x------x---x---x-----x---x---x-----------------------------------|
Db|-15--15--15-----14--14--14----12--12--12----------------------------------|
Ab|---------------------------------------------------------------------------|
Eb|---------------------------------------------------------------------------|                   X2
Chourus
eb|--------------------------------------------------------------------------|
Bb|--------------------------------------------------------------------------|
Gb|---9----------------------------------------------------------------------|
Db|---9-------------10-------------12----------------------------------------|
Ab|---7-------------10-------------12----------------------------------------|
Eb|-----------------8--------------10----------------------------------------|
Figure out the strumming pattern its easy.Thats the lot.Enjoy

Comments