Funeral For A Friend - Roses For The Dead Chords & Tabs

 

Roses For The Dead Chords & Tabs

Funeral For A Friend Chords & Tabs

Version: 1 Type: Tab 0 ratings
1 star 2 stars 3 stars 4 stars 5 stars
comments

Roses For The Dead Tab

   
Standard EADGBe
Distortion Throughout, both guitars.

Intro/Verse (6 Bars altogether) 
Guitar 1
 D#                      D#                  B                    C#
|----------------6---------------------6--------------------6--------------------6------|
|----7---6-----------6-----7---6-----------6----7---6-----------6----7---6-----------6--|
|------------6---------------------6--------------------6--------------------6----------|
|---------------------------------------------------------------------------------------|
|-4/6-6-6-6-6-6-6-6-6-6-4/6-6-6-6-6-6-6-6-6-6---------------------4-4-4-4-4-4-4-4-4-4-4-|
|--------------------------------------------7-7-7-7-7-7-7-7-7-7-7----------------------|x4

Intro Guitar 2
Comes in with same chords over Guitar 1 after 2 Bars
Let Ring
|----------------------|
|----------------------|
|--8----8---------6----|
|--8----8----9----6----|
|--6----6----9----4----|
|------------7---------|x4

Guitar 1 plays over Guitar 2 after 2 Bars
|--------------6--9--7--6----|
|--7--6---7--9------------9--|
|----------------------------|
|----------------------------|
|----------------------------|
|----------------------------|x2

Chorus
|------------------------------|
|------------------------------|
|------------------------------|
|--6-6-6--6-6-6--6-6-6--6-6-6--|
|--6-6-6--6-6-6--6-6-6--6-6-6--|
|--4-4-4--4-4-4--4-4-4--4-4-4--|x1

[ Tab from: http://www.guitartabs.cc/tabs/f/funeral_for_a_friend/roses_for_the_dead_tab.html ]
|--------------------------------------------------------|
|--------------------------------------------------------|
|--------------------------------------------------------|
|-6-6-6--6-6-6--6-6-6--6-6-6--2-2-2--2-2-2--2-2-2--2-2-2-|
|-6-6-6--6-6-6--6-6-6--6-6-6--2-2-2--2-2-2--2-2-2--2-2-2-| -|
|-4-4-4--4-4-4--4-4-4--4-4-4--0-0-0--0-0-0--0-0-0--0-0-0-|  |
                                                            |
|--------------------------------------------------------|  |
|--------------------------------------------------------|  |
|--------------------------------------------------------|  |
|-4-4-4--4-4-4--4-4-4--4-4-4--4-4-4--4-4-4--4-4-4--4-4-4-|  |
|-4-4-4--4-4-4--4-4-4--4-4-4--4-4-4--4-4-4--4-4-4--4-4-4-|  |
|-2-2-2--2-2-2--2-2-2--2-2-2--2-2-2--2-2-2--2-2-2--2-2-2-| -|x4


Plays Over last two bars of ^^.
|--7---9---6------6----|
|--------------9-------|
|----------------------|
|----------------------|
|----------------------|
|----------------------|x2

Let Ring
|-----------------|
|-----------------|
|---8-------------|
|---8-------------|
|---6-------------|
|-----------------|

Bass Leads back into verse, both guitars follow after two bars as previously.

Chorus2

Outro Lead (Double pick)
|--------11-12-14-12-11----|
|-12--14----------------14-|
|--------------------------|
|--------------------------|
|--------------------------|
|--------------------------|x4

Outro Rythym Palm Muted OR Bass Guitar playing 
      Bass notes, hard to pick out
|-----------------|
|-----------------|
|-----------------|
|-6-6--4-4--2-2---|
|-6-6--4-4--2-2---|
|-4-4--2-2--0-0---|x4

 PM
|------------|
|------------|
|------------|
|--2-2-2-----|
|--2-2-2-----|
|--0-0-0-----|x1
Comments