Funeral For A Friend - Red Is The New Black Chords & Tabs

 

Red Is The New Black Chords & Tabs

Funeral For A Friend Chords & Tabs

Version: 4 Type: Tab 0 ratings
1 star 2 stars 3 stars 4 stars 5 stars
comments

Red Is The New Black Tab

   
Song   :: Red is the New Black
Artist :: Funeral for a Friend
Album  :: Casually Dressed & Deep in Conversation
Tabber :: Emo_HatBoi

Tuning :: Drop Db (Db,Ab,Db,Gb,Bb,Eb)
          

Legend
(#) - Natural Harmonic
#p# - Pull Off
#h# - Hammer On
/// - Slide Up
\\\ - Slide Down
"X" - Dampened String (For Octaves, etc.)
... - Palm Muting
~~~ - Let Chord/Note Ring Out

Original::
Intro, Basic Verse + Chorus

05/11/05::
Corrected Tuning
Corrected Verse
Added the Outro
Completed tab

For the Intro, if you dont have a pedal, just roll your volume down a bit on ur guitar
to get a cleaner sound.

Intro (Clean) 
|-------------------------------------------|              
|-------------------------------------------|              
|-------------------------------------------|              
|--------6---6-------7-----7-----7----------| x2           
|----9-9---9---9-9-9---9-9---9-9---9--------|
|-------------------------------------------|

|----------0---4p0-------0---4p0------------|
|--------3---3---------3---3----------------|
|------2-------------2----------------------|
|----0-------------0------------------------| x2
|-------------------------------------------|
|-------------------------------------------|

Intro loops 3 times then you get this again:

Main Riff
|-------------------------------------------|
|-------------------------------------------|
|-------------------------------------------|
|--------6---6-------7-----7-----7----------| x2
|----9-9---9---9-9-9---9-9---9-9---9--------|
|-------------------------------------------|

After 4 bars of rest, you get this:

Interlude (Distorted)
|-------------------------------------------|
|-------------------------------------------|
|-------------------------------------------|
|---4--6---6--------7-----7-----7-----------| x2
|---4--4-4-4-4-4-4--4-4-4-4-4-4-4--4--------|
|---4--4-4-4-4-4-4--4-4-4-4-4-4-4--4--------|
         .   .....    ...   ...    . 
|-------------------------------------------|
|--(7)---------------(7)-(7)----------------|
|-----(7)---(5)---(5)-------(7)---(5)---(5)-|
|--------(7)---(5)-------------(7)---(5)----| x2
|-------------------------------------------|
|-------------------------------------------|

Then you get this:

Verse (Distorted)
|-------------------------------------------|              
|-------------------------------------------|              
|-------------------------------------------|              
|--------6---6-------7-----7-----7----------| x2           
|----9-9---9---9-9-9---9-9---9-9---9--------|
|-------------------------------------------|

|-------------------------------------------|              
|-------10p7--------------------------------|              
|--------------9--------9---6h7-------------|              
|----------------9----7---------------------| x2           
|-------------------------------------------|
|---000------0-----00----00-----------------|
    ...      .     ..    ..
|-------------------------------------------|              
|-------------------------------------------|              
|-------------------------------------------|              
|--------6---6-------7-----7-----7----------| x2           
|----9-9---9---9-9-9---9-9---9-9---9--------|
|-------------------------------------------| 
[ Tab from: http://www.guitartabs.cc/tabs/f/funeral_for_a_friend/red_is_the_new_black_tab_ver_4.html ]
|----------0---4---------0---4--------------|
|--------3---3---------3---3----------------|
|------2-------------2----------------------|
|----0-------------0------------------------| x2
|-------------------------------------------|
|-------------------------------------------| 

This loops round twice then you get this: 

Chorus (Distorted)
|-------------------------------------------|              
|-------------------------------------------|              
|o------------------------------------------|              
|---7---9---11--11-11---7---9---11--11-11---|            
|o--7-7-7-7--7---7--7---7-7-7-7--7---7--7---|
|---7-7-7-7--7---7--7---7-7-7-7--7---7--7---|

|-------------------------------------------|              
|-------------------------------------------|              
|-------------------7-7---7-7\\\9-9--------o|
|---4---6---7-7-7---X-X---X-X\\\X-X---------|              
|---4-4-4-4-4-4-4---5-5---5-5\\\7-7--------o|              
|---4-4-4-4-4-4-4-------0-------------------|

Then you get a series of palm-muted "dum-dum" sounds (lol I know, I know! It's a bad
way 2 describe them but I can't think of a better way!) 
They are just these:

Breakdown (Distorted)
|-------------------------------------------|              
|-------------------------------------------|             
|-------------------------------------------|    There are about 30
|-------------------------------------------|       muted "00"'s     
|---00-00-00-00-00-00-00-00-00-00-00-00-00--|             "00"
|---00-00-00-00-00-00-00-00-00-00-00-00-00--|
    ......................................

Then, finally, you get this:

Outro:

|-------------------------------------------|
|-------------------------------------------|
|-------------------------------------------|
|--------6---6-------7-----7-----7----------| x3
|----9-9---9---9-9-9---9-9---9-9---9--------|
|-------------------------------------------|

|-------------------------------------------|
|-------------------------------------------|
|-------------------------------------------|
|--------6---6-------7-----7----------------|
|----9-9---9---9-9-9---9-9---9-9---00-------|
|----------------------------------00-------|
                                   ..
|------------------------------------------------------------|
|------------------------------------------------------------|
|------------------------------------------------------------|
|---4~~~-444~~~-7--6-----------------------------------------| x3
|---4~~~-444~~~-7--6--00-000-0000-000-0000-000-0000-000-0----|
|---4~~~-444~~~-7--6--00-000-0000-000-0000-000-0000-000-0----|
                      ...................................
|------------------------------------------------------------|
|------------------------------------------------------------|
|------------------------------------------------------------|
|---4~~~-444~~~-7--9-----------------------------------------|
|---4~~~-444~~~-7--9--00-000-0000-000-0000-000-0000-000------|
|---4~~~-444~~~-7--9--00-000-0000-000-0000-000-0000-000------|
                      .................................
|---------------------------------------------|
|---------------------------------------------|    On the 2nd time,
|---------------------------------------------|   add another muted   
|---------------------------------------------| x2 "0" to end
|---0000-000-0000-000-0000-000-0000-000-------|    "0"
|---0000-000-0000-000-0000-000-0000-000-------|
    ...................................

Right that's it. This song needs a "Modern" distorted sound 2 it so it can sound really
good. If you havn't a "Modern" on your amp, then have your Gain about 6, Treble about 5,
Middle about 6 & Bass about 4 to get a nice sound "FFAF" sound.

Enjoy & please rate this!
Thanks
Comments