Funeral For A Friend - Red Is The New Black Chords & Tabs

 

Red Is The New Black Chords & Tabs

Funeral For A Friend Chords & Tabs

Version: 2 Type: Tab 0 ratings
1 star 2 stars 3 stars 4 stars 5 stars
comments

Red Is The New Black Tab

   
Red Is The New Black - Funeral For A Friend
Tabbed by Tom Martin

Tuning - Drop Db

 Db Ab Db Gb Bb Eb (low to high) 


I'm pretty sure this is all correct. Any corrections will be well received.
Hope this helps you all!

Intro - (0.00 - 0.38)

|----------------------------------------------------------------------------|
|----------------------------------------------------------------------------|
|----------------------------------------------------------------------------|
|----------------------------------------------------------------------------| x2
|---9-9-11-9-11-9-9-12-9-9-12-9-9-12-9-9-------------------------------------|
|----------------------------------------------------------------------------|

|-------------4--------------------------------------------------------------|
|---------5-----5------------------------------------------------------------|
|-------7---7----------------------------------------------------------------|
|-----7----------------------------------------------------------------------| x4
|---5------------------------------------------------------------------------|
|----------------------------------------------------------------------------|

---------------------------------------------------------------------------------

Bridge - (0.38 - 1.06)

Lead
|----------------------------------------------------------------------------|
|----------------------------------------------------------------------------|
|----------------------------------------------------------------------------|
|----------------------------------------------------------------------------|
|---9-x-x-9-x-9-12-9-9-12-9-9-12-9-9-----------------------------------------| x2
|----------------------------------------------------------------------------|

|---14-------15-14-15-14-----------------------------------------------------|
|------15-12-----------------------------------------------------------------|
|----------------------------------------------------------------------------|
|----------------------------------------------------------------------------| x4
|----------------------------------------------------------------------------|
|----------------------------------------------------------------------------|

Rhythm
|----------------------------------------------------------------------------|
|----------------------------------------------------------------------------|
|----------------------------------------------------------------------------|
|---4---x-x-4----------------------------------------------------------------| 
|---4---x-x-4--4-4-4-4-4-4-4-4---(x2-then)--0-0-0-0-(x8)---------------------|
|---4---x-x-4--4-4-4-4-4-4-4-4--------------0-0-0-0--------------------------|
PM             - - - - - - - -              - - - -

---------------------------------------------------------------------------------

Verse - (1.06 - 1.50)

Lead
|----------------------------------------------------------------------------|
|----------------------------------------------------------------------------|
|----------------------------------------------------------------------------|
|----------------------------------------------------------------------------| x2
|---9-9-11-9-11-9-9-12-9-9-12-9-9-12-9-9-------------------------------------|
|----------------------------------------------------------------------------|

|----------------------------------------------------------------------------|
|----------------------------------------------------------------------------|
|---14p11--13p9--------------------------------------------------------------|
|-------------------14--11-12------------------------------------------------| x2
|----------------12----------------------------------------------------------|
|----------------------------------------------------------------------------|

|----------------------------------------------------------------------------|
|----------------------------------------------------------------------------|
|----------------------------------------------------------------------------|
|----------------------------------------------------------------------------| x2
|---9-9-11-9-11-9-9-12-9-9-12-9-9-12-9-9-------------------------------------|
|----------------------------------------------------------------------------|

|----------------------------------------------------------------------------|
|---10--------10-------------------------------------------------------------|
|-------9--6------9----------------------------------------------------------|
|--------------------9p7-----------------------------------------------------| x2
|----------------------------------------------------------------------------|
|----------------------------------------------------------------------------|
[ Tab from: http://www.guitartabs.cc/tabs/f/funeral_for_a_friend/red_is_the_new_black_tab_ver_2.html ]
Rhythm
|----------------------------------------------------------------------------|
|----------------------------------------------------------------------------|
|----------------------------------------------------------------------------|
|----------------------------------------------------------------------------| x2
|---9-9-11-9-11-9-9-12-9-9-12-9-9-12-9-9-------------------------------------|
|----------------------------------------------------------------------------|

|----------------------------------------------------------------------------|
|----------------------------------------------------------------------------|
|----------------------------------------------------------------------------|
|----------------------------------------------------------------------------|
|---0-0-0-0-0-0---0-0-0-0-0-0---0-0-0-0-0-0---0-0-0-0-0-0--------------------|
|---0-0-0-0-0-0---0-0-0-0-0-0---0-0-0-0-0-0---0-0-0-0-0-0--------------------|
PM ALL

|----------------------------------------------------------------------------|
|----------------------------------------------------------------------------|
|----------------------------------------------------------------------------|
|----------------------------------------------------------------------------| x2
|---9-9-11-9-11-9-9-12-9-9-12-9-9-12-9-9-------------------------------------|
|----------------------------------------------------------------------------|

|----------------------------------------------------------------------------|
|----------------------------------------------------------------------------|
|----------------------------------------------------------------------------|
|----------------------------------------------------------------------------|
|---0-0-0-0-0-0---0-0-0-0-0-0---0-0-0-0-0-0---0-0-0-0-0-0--------------------|
|---0-0-0-0-0-0---0-0-0-0-0-0---0-0-0-0-0-0---0-0-0-0-0-0--------------------|
PM ALL

---------------------------------------------------------------------------------

Chorus - (1.50 - 2.12)

Lead
|----------------------------------------------------------------------------|
|-----10-9-------10-9-------12-9---------------10----------------------------|
|----------9----------9---9------9---7-7--7-7---9----------------------------|
|---7----------7---------------------0-0--0-0--------------------------------| x2
|----------------------------------------------------------------------------|
|----------------------------------------------------------------------------|

Rhythm
|----------------------------------------------------------------------------|
|-------------------------------------------------------------------10-------|
|---------------------------------------------------------7-7--7-7---9-------|
|---7------7------7---7------7------7---4------4------4---7-7--7-7-----------| x2
|---7--7-7-7--7-7-7---7--7-7-7--7-7-7---4--4-4-4--4-4-4---5-5--5-5-----------|
|---7--7-7-7--7-7-7---7--7-7-7--7-7-7---4--4-4-4--4-4-4----------------------|
PM     - -    - -        - -    - -        - -    - -

---------------------------------------------------------------------------------

Verse Repeat - (2.12 - 2.56)

---------------------------------------------------------------------------------

Chorus Repeat x2 - (2.56 - 3.40)

---------------------------------------------------------------------------------

Bridge - (3.40 - 4.13)

Lead
|----------------------------------------------------------------------------|
|----------------------------------------------------------------------------|
|----------------------------------------------------------------------------|
|----------------------------------------------------------------------------| x12
|---0-0--0-0--0-0--0-0-------------------------------------------------------|
|---0-0--0-0--0-0--0-0-------------------------------------------------------|
                   ^ ^ Last time time dont play these

|----------------------------------------------------------------------------|
|----------------------------------------------------------------------------|
|----------------------------------------------------------------------------|
|----------------------------------------------------------------------------| x2
|---9-9-11-9-11-9-9-12-9-9-12-9-9-12-9-9-------------------------------------|
|----------------------------------------------------------------------------|

---------------------------------------------------------------------------------

Breakdown - (4.13 - 4.57)

Lead & Rhythm
|----------------------------------------------------------------------------|
|----------------------------------------------------------------------------|
|---------------------7------------------------------------------------------|
|---4----4----4----7--7------------------------------------------------------| x4
|---4----4----4----7--5----(0-0--0-0-0--0-0)-(x4)----------------------------|
|---4----4----4----7--7----(0-0--0-0-0--0-0)---------------------------------|

---------------------------------------------------------------------------------

Outro - (4.57 - 5.08)

|----------------------------------------------------------------------------|
|----------------------------------------------------------------------------|
|----------------------------------------------------------------------------|
|----------------------------------------------------------------------------| x8
|---0-0--0-0-0--0-0----------------------------------------------------------|
|---0-0--0-0-0--0-0----------------------------------------------------------|

Email - Infantfinite666@hotmail.com
Any questions, feel free to add me to msn.
Comments